  0
SECTION
  2
HEADER
  9
$ACADVER
  1
AC1014
  9
$ACADMAINTVER
 70
     9
  9
$DWGCODEPAGE
  3
ANSI_1252
  9
$INSBASE
 10
0.0
 20
0.0
 30
0.0
  9
$EXTMIN
 10
-0.5
 20
-0.5
 30
-0.5
  9
$EXTMAX
 10
5.0
 20
5.0
 30
5.0
  9
$LIMMIN
 10
-0.5
 20
-0.5
  9
$LIMMAX
 10
5.0
 20
5.0
  9
$ORTHOMODE
 70
     0
  9
$REGENMODE
 70
     1
  9
$FILLMODE
 70
     1
  9
$QTEXTMODE
 70
     0
  9
$MIRRTEXT
 70
     1
  9
$DRAGMODE
 70
     2
  9
$LTSCALE
 40
1.0
  9
$OSMODE
 70
    37
  9
$ATTMODE
 70
     1
  9
$TEXTSIZE
 40
0.2
  9
$TRACEWID
 40
0.05
  9
$TEXTSTYLE
  7
STANDARD
  9
$CLAYER
  8
0
  9
$CELTYPE
  6
BYLAYER
  9
$CECOLOR
 62
   256
  9
$CELTSCALE
 40
1.0
  9
$DELOBJ
 70
     1
  9
$DISPSILH
 70
     0
  9
$DIMSCALE
 40
1.0
  9
$DIMASZ
 40
0.18
  9
$DIMEXO
 40
0.0625
  9
$DIMDLI
 40
0.38
  9
$DIMRND
 40
0.0
  9
$DIMDLE
 40
0.0
  9
$DIMEXE
 40
0.18
  9
$DIMTP
 40
0.0
  9
$DIMTM
 40
0.0
  9
$DIMTXT
 40
0.18
  9
$DIMCEN
 40
0.09
  9
$DIMTSZ
 40
0.0
  9
$DIMTOL
 70
     0
  9
$DIMLIM
 70
     0
  9
$DIMTIH
 70
     1
  9
$DIMTOH
 70
     1
  9
$DIMSE1
 70
     0
  9
$DIMSE2
 70
     0
  9
$DIMTAD
 70
     0
  9
$DIMZIN
 70
     0
  9
$DIMBLK
  1

  9
$DIMASO
 70
     1
  9
$DIMSHO
 70
     1
  9
$DIMPOST
  1

  9
$DIMAPOST
  1

  9
$DIMALT
 70
     0
  9
$DIMALTD
 70
     2
  9
$DIMALTF
 40
25.4
  9
$DIMLFAC
 40
1.0
  9
$DIMTOFL
 70
     0
  9
$DIMTVP
 40
0.0
  9
$DIMTIX
 70
     0
  9
$DIMSOXD
 70
     0
  9
$DIMSAH
 70
     0
  9
$DIMBLK1
  1

  9
$DIMBLK2
  1

  9
$DIMSTYLE
  2
STANDARD
  9
$DIMCLRD
 70
     0
  9
$DIMCLRE
 70
     0
  9
$DIMCLRT
 70
     0
  9
$DIMTFAC
 40
1.0
  9
$DIMGAP
 40
0.09
  9
$DIMJUST
 70
     0
  9
$DIMSD1
 70
     0
  9
$DIMSD2
 70
     0
  9
$DIMTOLJ
 70
     1
  9
$DIMTZIN
 70
     0
  9
$DIMALTZ
 70
     0
  9
$DIMALTTZ
 70
     0
  9
$DIMFIT
 70
     3
  9
$DIMUPT
 70
     0
  9
$DIMUNIT
 70
     2
  9
$DIMDEC
 70
     4
  9
$DIMTDEC
 70
     4
  9
$DIMALTU
 70
     2
  9
$DIMALTTD
 70
     2
  9
$DIMTXSTY
  7
STANDARD
  9
$DIMAUNIT
 70
     0
  9
$LUNITS
 70
     2
  9
$LUPREC
 70
     4
  9
$SKETCHINC
 40
0.1
  9
$FILLETRAD
 40
0.5
  9
$AUNITS
 70
     0
  9
$AUPREC
 70
     0
  9
$MENU
  1
.
  9
$ELEVATION
 40
0.0
  9
$PELEVATION
 40
0.0
  9
$THICKNESS
 40
0.0
  9
$LIMCHECK
 70
     0
  9
$CHAMFERA
 40
0.5
  9
$CHAMFERB
 40
0.5
  9
$CHAMFERC
 40
1.0
  9
$CHAMFERD
 40
0.0
  9
$SKPOLY
 70
     0
  9
$TDCREATE
 40
2456279.663105197
  9
$TDUPDATE
 40
2456279.663105208
  9
$TDINDWG
 40
0.0000000116
  9
$TDUSRTIMER
 40
0.0000000116
  9
$USRTIMER
 70
     1
  9
$ANGBASE
 50
0.0
  9
$ANGDIR
 70
     0
  9
$PDMODE
 70
     0
  9
$PDSIZE
 40
0.0
  9
$PLINEWID
 40
0.0
  9
$COORDS
 70
     1
  9
$SPLFRAME
 70
     0
  9
$SPLINETYPE
 70
     6
  9
$SPLINESEGS
 70
     8
  9
$ATTDIA
 70
     0
  9
$ATTREQ
 70
     1
  9
$HANDLING
 70
     1
  9
$HANDSEED
  5
355
  9
$SURFTAB1
 70
     6
  9
$SURFTAB2
 70
     6
  9
$SURFTYPE
 70
     6
  9
$SURFU
 70
     6
  9
$SURFV
 70
     6
  9
$UCSNAME
  2

  9
$UCSORG
 10
0.0
 20
0.0
 30
0.0
  9
$UCSXDIR
 10
1.0
 20
0.0
 30
0.0
  9
$UCSYDIR
 10
0.0
 20
1.0
 30
0.0
  9
$PUCSNAME
  2

  9
$PUCSORG
 10
0.0
 20
0.0
 30
0.0
  9
$PUCSXDIR
 10
1.0
 20
0.0
 30
0.0
  9
$PUCSYDIR
 10
0.0
 20
1.0
 30
0.0
  9
$USERI1
 70
     0
  9
$USERI2
 70
     0
  9
$USERI3
 70
     0
  9
$USERI4
 70
     0
  9
$USERI5
 70
     0
  9
$USERR1
 40
0.0
  9
$USERR2
 40
0.0
  9
$USERR3
 40
0.0
  9
$USERR4
 40
0.0
  9
$USERR5
 40
0.0
  9
$WORLDVIEW
 70
     1
  9
$SHADEDGE
 70
     3
  9
$SHADEDIF
 70
    70
  9
$TILEMODE
 70
     1
  9
$MAXACTVP
 70
    64
  9
$PINSBASE
 10
0.0
 20
0.0
 30
0.0
  9
$PLIMCHECK
 70
     0
  9
$PEXTMIN
 10
-0.5
 20
-0.5
 30
-0.5
  9
$PEXTMAX
 10
5.0
 20
5.0
 30
5.0
  9
$PLIMMIN
 10
-0.5
 20
-0.5
  9
$PLIMMAX
 10
5.0
 20
5.0
  9
$UNITMODE
 70
     0
  9
$VISRETAIN
 70
     1
  9
$PLINEGEN
 70
     0
  9
$PSLTSCALE
 70
     1
  9
$TREEDEPTH
 70
  3020
  9
$PICKSTYLE
 70
     1
  9
$CMLSTYLE
  2
STANDARD
  9
$CMLJUST
 70
     0
  9
$CMLSCALE
 40
1.0
  9
$PROXYGRAPHICS
 70
     1
  9
$MEASUREMENT
 70
     1
  0
ENDSEC
  0
SECTION
  2
CLASSES
  0
CLASS
  1
ACDBDICTIONARYWDFLT
  2
AcDbDictionaryWithDefault
  3
ObjectDBX Classes
 90
        0
280
     0
281
     0
  0
CLASS
  1
VISUALSTYLE
  2
AcDbVisualStyle
  3
ObjectDBX Classes
 90
     4095
280
     0
281
     0
  0
CLASS
  1
MATERIAL
  2
AcDbMaterial
  3
ObjectDBX Classes
 90
     1153
280
     0
281
     0
  0
CLASS
  1
DICTIONARYVAR
  2
AcDbDictionaryVar
  3
ObjectDBX Classes
 90
        0
280
     0
281
     0
  0
CLASS
  1
XRECORD
  2
AcDbXrecord
  3
AutoCAD 2000
 90
        0
280
     0
281
     0
  0
CLASS
  1
LWPOLYLINE
  2
AcDbPolyline
  3
AutoCAD 2000
 90
        0
280
     0
281
     1
  0
CLASS
  1
HATCH
  2
AcDbHatch
  3
AutoCAD 2000
 90
        0
280
     0
281
     1
  0
CLASS
  1
ACDBPLACEHOLDER
  2
AcDbPlaceHolder
  3
ObjectDBX Classes
 90
        0
280
     0
281
     0
  0
CLASS
  1
LAYOUT
  2
AcDbLayout
  3
ObjectDBX Classes
 90
        0
280
     0
281
     0
  0
ENDSEC
  0
SECTION
  2
TABLES
  0
TABLE
  2
VPORT
  5
8
330
0
100
AcDbSymbolTable
 70
    17
  0
VPORT
  5
29
330
8
100
AcDbSymbolTableRecord
100
AcDbViewportTableRecord
  2
DUMMY
 70
     0
 10
0.0
 20
0.0
 11
1.0
 21
1.0
 12
10.429907
 22
4.5
 13
0.0
 23
0.0
 14
0.5
 24
0.5
 15
0.5
 25
0.5
 16
0.0
 26
0.0
 36
1.0
 17
0.0
 27
0.0
 37
0.0
 40
9.0
 41
1.972973
 42
50.0
 43
0.0
 44
0.0
 50
0.0
 51
0.0
 71
     0
 72
   100
 73
     1
 74
     3
 75
     0
 76
     0
 77
     0
 78
     0
  0
VPORT
  5
31A
330
8
100
AcDbSymbolTableRecord
100
AcDbViewportTableRecord
  2
*ACTIVE
 70
     0
 10
0.0
 20
0.0
 11
1.0
 21
1.0
 12
622.546828
 22
382.395633
 13
0.0
 23
0.0
 14
0.5
 24
0.5
 15
0.5
 25
0.5
 16
0.0
 26
0.0
 36
1.0
 17
0.0
 27
0.0
 37
0.0
 40
254.0
 41
0.069908
 42
50.0
 43
867.908806
 44
-867.908806
 50
0.0
 51
0.0
 71
     0
 72
   100
 73
     1
 74
     3
 75
     0
 76
     0
 77
     0
 78
     0
  0
VPORT
  5
31B
330
8
100
AcDbSymbolTableRecord
100
AcDbViewportTableRecord
  2
L1
 70
     0
 10
0.0
 20
0.0
 11
1.0
 21
1.0
 12
622.546828
 22
382.395633
 13
0.0
 23
0.0
 14
0.5
 24
0.5
 15
0.5
 25
0.5
 16
0.0
 26
0.0
 36
1.0
 17
0.0
 27
0.0
 37
0.0
 40
254.0
 41
0.069908
 42
50.0
 43
867.908806
 44
-867.908806
 50
0.0
 51
0.0
 71
     0
 72
   100
 73
     1
 74
     3
 75
     0
 76
     0
 77
     0
 78
     0
  0
VPORT
  5
31C
330
8
100
AcDbSymbolTableRecord
100
AcDbViewportTableRecord
  2
L2
 70
     0
 10
0.0
 20
0.0
 11
0.5
 21
1.0
 12
0.0
 22
0.0
 13
0.0
 23
0.0
 14
0.5
 24
0.5
 15
0.5
 25
0.5
 16
0.0
 26
-1.0
 36
0.0
 17
0.0
 27
0.0
 37
0.0
 40
1319.822715
 41
0.013454
 42
50.0
 43
672.020833
 44
-672.020833
 50
0.0
 51
0.0
 71
     0
 72
   100
 73
     1
 74
     3
 75
     0
 76
     0
 77
     0
 78
     0
  0
VPORT
  5
31D
330
8
100
AcDbSymbolTableRecord
100
AcDbViewportTableRecord
  2
L2
 70
     0
 10
0.5
 20
0.0
 11
1.0
 21
1.0
 12
0.0
 22
0.0
 13
0.0
 23
0.0
 14
0.5
 24
0.5
 15
0.5
 25
0.5
 16
1.0
 26
0.0
 36
0.0
 17
0.0
 27
0.0
 37
0.0
 40
1319.822715
 41
0.013454
 42
50.0
 43
672.020833
 44
-672.020833
 50
0.0
 51
0.0
 71
     0
 72
   100
 73
     1
 74
     3
 75
     0
 76
     0
 77
     0
 78
     0
  0
VPORT
  5
31E
330
8
100
AcDbSymbolTableRecord
100
AcDbViewportTableRecord
  2
L3
 70
     0
 10
0.0
 20
0.5
 11
1.0
 21
1.0
 12
622.546828
 22
382.395633
 13
0.0
 23
0.0
 14
0.5
 24
0.5
 15
0.5
 25
0.5
 16
0.0
 26
0.0
 36
1.0
 17
0.0
 27
0.0
 37
0.0
 40
254.0
 41
0.069908
 42
50.0
 43
867.908806
 44
-867.908806
 50
0.0
 51
0.0
 71
     0
 72
   100
 73
     1
 74
     3
 75
     0
 76
     0
 77
     0
 78
     0
  0
VPORT
  5
31F
330
8
100
AcDbSymbolTableRecord
100
AcDbViewportTableRecord
  2
L3
 70
     0
 10
0.0
 20
0.0
 11
1.0
 21
0.5
 12
0.0
 22
0.0
 13
0.0
 23
0.0
 14
0.5
 24
0.5
 15
0.5
 25
0.5
 16
0.0
 26
-1.0
 36
0.0
 17
0.0
 27
0.0
 37
0.0
 40
1319.822715
 41
0.013454
 42
50.0
 43
672.020833
 44
-672.020833
 50
0.0
 51
0.0
 71
     0
 72
   100
 73
     1
 74
     3
 75
     0
 76
     0
 77
     0
 78
     0
  0
VPORT
  5
320
330
8
100
AcDbSymbolTableRecord
100
AcDbViewportTableRecord
  2
L4
 70
     0
 10
0.0
 20
0.5
 11
0.5
 21
1.0
 12
622.546828
 22
382.395633
 13
0.0
 23
0.0
 14
0.5
 24
0.5
 15
0.5
 25
0.5
 16
0.0
 26
0.0
 36
1.0
 17
0.0
 27
0.0
 37
0.0
 40
254.0
 41
0.069908
 42
50.0
 43
867.908806
 44
-867.908806
 50
0.0
 51
0.0
 71
     0
 72
   100
 73
     1
 74
     3
 75
     0
 76
     0
 77
     0
 78
     0
  0
VPORT
  5
321
330
8
100
AcDbSymbolTableRecord
100
AcDbViewportTableRecord
  2
L4
 70
     0
 10
0.0
 20
0.0
 11
0.5
 21
0.5
 12
0.0
 22
0.0
 13
0.0
 23
0.0
 14
0.5
 24
0.5
 15
0.5
 25
0.5
 16
0.0
 26
-1.0
 36
0.0
 17
0.0
 27
0.0
 37
0.0
 40
1319.822715
 41
0.013454
 42
50.0
 43
672.020833
 44
-672.020833
 50
0.0
 51
0.0
 71
     0
 72
   100
 73
     1
 74
     3
 75
     0
 76
     0
 77
     0
 78
     0
  0
VPORT
  5
322
330
8
100
AcDbSymbolTableRecord
100
AcDbViewportTableRecord
  2
L4
 70
     0
 10
0.5
 20
0.0
 11
1.0
 21
0.5
 12
0.0
 22
0.0
 13
0.0
 23
0.0
 14
0.5
 24
0.5
 15
0.5
 25
0.5
 16
1.0
 26
0.0
 36
0.0
 17
0.0
 27
0.0
 37
0.0
 40
1319.822715
 41
0.013454
 42
50.0
 43
672.020833
 44
-672.020833
 50
0.0
 51
0.0
 71
     0
 72
   100
 73
     1
 74
     3
 75
     0
 76
     0
 77
     0
 78
     0
  0
VPORT
  5
323
330
8
100
AcDbSymbolTableRecord
100
AcDbViewportTableRecord
  2
L4
 70
     0
 10
0.5
 20
0.5
 11
1.0
 21
1.0
 12
0.0
 22
0.0
 13
0.0
 23
0.0
 14
0.5
 24
0.5
 15
0.5
 25
0.5
 16
0.5773502691896258
 26
-0.5773502691896258
 36
0.5773502691896258
 17
0.0
 27
0.0
 37
0.0
 40
1285.020866
 41
0.013818
 42
50.0
 43
667.141407
 44
-667.141407
 50
0.0
 51
0.0
 71
     0
 72
   100
 73
     1
 74
     3
 75
     0
 76
     0
 77
     0
 78
     0
  0
VPORT
  5
324
330
8
100
AcDbSymbolTableRecord
100
AcDbViewportTableRecord
  2
L6
 70
     0
 10
0.0
 20
0.5
 11
0.333333
 21
1.0
 12
0.0
 22
0.0
 13
0.0
 23
0.0
 14
0.5
 24
0.5
 15
0.5
 25
0.5
 16
0.7188730927569434
 26
-0.5850486126764431
 36
0.3754192287502549
 17
0.0
 27
0.0
 37
0.0
 40
1357.434192
 41
0.013081
 42
50.0
 43
701.839477
 44
-701.839477
 50
0.0
 51
0.0
 71
     0
 72
   100
 73
     1
 74
     3
 75
     0
 76
     0
 77
     0
 78
     0
  0
VPORT
  5
325
330
8
100
AcDbSymbolTableRecord
100
AcDbViewportTableRecord
  2
L6
 70
     0
 10
0.0
 20
0.0
 11
0.333333
 21
0.5
 12
0.0
 22
0.0
 13
0.0
 23
0.0
 14
0.5
 24
0.5
 15
0.5
 25
0.5
 16
-1.0
 26
0.0
 36
0.0
 17
0.0
 27
0.0
 37
0.0
 40
1319.822715
 41
0.013454
 42
50.0
 43
672.020833
 44
-672.020833
 50
0.0
 51
0.0
 71
     0
 72
   100
 73
     1
 74
     3
 75
     0
 76
     0
 77
     0
 78
     0
  0
VPORT
  5
326
330
8
100
AcDbSymbolTableRecord
100
AcDbViewportTableRecord
  2
L6
 70
     0
 10
0.333333
 20
0.5
 11
0.666667
 21
1.0
 12
622.546828
 22
382.395633
 13
0.0
 23
0.0
 14
0.5
 24
0.5
 15
0.5
 25
0.5
 16
0.0
 26
0.0
 36
1.0
 17
0.0
 27
0.0
 37
0.0
 40
254.0
 41
0.069908
 42
50.0
 43
867.908806
 44
-867.908806
 50
0.0
 51
0.0
 71
     0
 72
   100
 73
     1
 74
     3
 75
     0
 76
     0
 77
     0
 78
     0
  0
VPORT
  5
327
330
8
100
AcDbSymbolTableRecord
100
AcDbViewportTableRecord
  2
L6
 70
     0
 10
0.333333
 20
0.0
 11
0.666667
 21
0.5
 12
0.0
 22
0.0
 13
0.0
 23
0.0
 14
0.5
 24
0.5
 15
0.5
 25
0.5
 16
0.0
 26
-1.0
 36
0.0
 17
0.0
 27
0.0
 37
0.0
 40
1319.822715
 41
0.013454
 42
50.0
 43
672.020833
 44
-672.020833
 50
0.0
 51
0.0
 71
     0
 72
   100
 73
     1
 74
     3
 75
     0
 76
     0
 77
     0
 78
     0
  0
VPORT
  5
328
330
8
100
AcDbSymbolTableRecord
100
AcDbViewportTableRecord
  2
L6
 70
     0
 10
0.666667
 20
0.5
 11
1.0
 21
1.0
 12
0.0
 22
0.0
 13
0.0
 23
0.0
 14
0.5
 24
0.5
 15
0.5
 25
0.5
 16
0.5773502691896258
 26
-0.5773502691896258
 36
0.5773502691896258
 17
0.0
 27
0.0
 37
0.0
 40
1285.020866
 41
0.013818
 42
50.0
 43
667.141407
 44
-667.141407
 50
0.0
 51
0.0
 71
     0
 72
   100
 73
     1
 74
     3
 75
     0
 76
     0
 77
     0
 78
     0
  0
VPORT
  5
329
330
8
100
AcDbSymbolTableRecord
100
AcDbViewportTableRecord
  2
L6
 70
     0
 10
0.666667
 20
0.0
 11
1.0
 21
0.5
 12
0.0
 22
0.0
 13
0.0
 23
0.0
 14
0.5
 24
0.5
 15
0.5
 25
0.5
 16
1.0
 26
0.0
 36
0.0
 17
0.0
 27
0.0
 37
0.0
 40
1319.822715
 41
0.013454
 42
50.0
 43
672.020833
 44
-672.020833
 50
0.0
 51
0.0
 71
     0
 72
   100
 73
     1
 74
     3
 75
     0
 76
     0
 77
     0
 78
     0
  0
ENDTAB
  0
TABLE
  2
LTYPE
  5
5
330
0
100
AcDbSymbolTable
 70
     7
  0
LTYPE
  5
14
330
5
100
AcDbSymbolTableRecord
100
AcDbLinetypeTableRecord
  2
BYBLOCK
 70
     0
  3

 72
    65
 73
     0
 40
0.0
  0
LTYPE
  5
15
330
5
100
AcDbSymbolTableRecord
100
AcDbLinetypeTableRecord
  2
BYLAYER
 70
     0
  3

 72
    65
 73
     0
 40
0.0
  0
LTYPE
  5
16
330
5
100
AcDbSymbolTableRecord
100
AcDbLinetypeTableRecord
  2
CONTINUOUS
 70
     0
  3
Solid line
 72
    65
 73
     0
 40
0.0
  0
LTYPE
  5
3F
330
5
100
AcDbSymbolTableRecord
100
AcDbLinetypeTableRecord
  2
DASHED
 70
     0
  3
__ __ __ __ __ __ __ __ __
 72
    65
 73
     2
 40
25.72
 49
12.86
 74
     4
 75
     0
340
0
 46
0.0
 50
0.0
 44
0.0
 45
0.0
 49
-12.86
 74
     4
 75
     0
340
0
 46
0.0
 50
0.0
 44
0.0
 45
0.0
  0
LTYPE
  5
40
330
5
100
AcDbSymbolTableRecord
100
AcDbLinetypeTableRecord
  2
HIDDEN
 70
     0
  3
_ _ _ _ _ _ _ _ _ _ _ _ _ _ _
 72
    65
 73
     2
 40
0.5
 49
0.25
 74
     4
 75
     0
340
0
 46
0.0
 50
0.0
 44
0.0
 45
0.0
 49
-0.25
 74
     4
 75
     0
340
0
 46
0.0
 50
0.0
 44
0.0
 45
0.0
  0
LTYPE
  5
41
330
5
100
AcDbSymbolTableRecord
100
AcDbLinetypeTableRecord
  2
PHANTOM
 70
     0
  3
____ _ _ ____ _ _ _____ _ _ ____
 72
    65
 73
     6
 40
50.5
 49
18.0
 74
     4
 75
     0
340
0
 46
0.0
 50
0.0
 44
0.0
 45
0.0
 49
-6.5
 74
     4
 75
     0
340
0
 46
0.0
 50
0.0
 44
0.0
 45
0.0
 49
6.5
 74
     4
 75
     0
340
0
 46
0.0
 50
0.0
 44
0.0
 45
0.0
 49
-6.5
 74
     4
 75
     0
340
0
 46
0.0
 50
0.0
 44
0.0
 45
0.0
 49
6.5
 74
     4
 75
     0
340
0
 46
0.0
 50
0.0
 44
0.0
 45
0.0
 49
-6.5
 74
     4
 75
     0
340
0
 46
0.0
 50
0.0
 44
0.0
 45
0.0
  0
LTYPE
  5
42
330
5
100
AcDbSymbolTableRecord
100
AcDbLinetypeTableRecord
  2
CENTER
 70
     0
  3
____ _ ____ _ ____ _ ____
 72
    65
 73
     4
 40
47.4
 49
22.0
 74
     4
 75
     0
340
0
 46
0.0
 50
0.0
 44
0.0
 45
0.0
 49
-8.5
 74
     4
 75
     0
340
0
 46
0.0
 50
0.0
 44
0.0
 45
0.0
 49
8.5
 74
     4
 75
     0
340
0
 46
0.0
 50
0.0
 44
0.0
 45
0.0
 49
-8.5
 74
     4
 75
     0
340
0
 46
0.0
 50
0.0
 44
0.0
 45
0.0
  0
LTYPE
  5
43
330
5
100
AcDbSymbolTableRecord
100
AcDbLinetypeTableRecord
  2
DOT
 70
     0
  3
.........................
 72
    65
 73
     2
 40
10.0
 49
0.0
 74
     4
 75
     0
340
0
 46
0.0
 50
0.0
 44
0.0
 45
0.0
 49
-10.0
 74
     4
 75
     0
340
0
 46
0.0
 50
0.0
 44
0.0
 45
0.0
  0
LTYPE
  5
44
330
5
100
AcDbSymbolTableRecord
100
AcDbLinetypeTableRecord
  2
DASHDOT
 70
     0
  3
_._._._._._._._._._._._._._._._.
 72
    65
 73
     4
 40
70.0
 49
31.0
 74
     4
 75
     0
340
0
 46
0.0
 50
0.0
 44
0.0
 45
0.0
 49
-13.0
 74
     4
 75
     0
340
0
 46
0.0
 50
0.0
 44
0.0
 45
0.0
 49
13.0
 74
     4
 75
     0
340
0
 46
0.0
 50
0.0
 44
0.0
 45
0.0
 49
-13.0
 74
     4
 75
     0
340
0
 46
0.0
 50
0.0
 44
0.0
 45
0.0
  0
ENDTAB
  0
TABLE
  2
LAYER
  5
2
330
0
100
AcDbSymbolTable
 70
     2
  0
LAYER
  5
10
330
2
100
AcDbSymbolTableRecord
100
AcDbLayerTableRecord
  2
0
 70
     0
 62
     7
  6
CONTINUOUS
  0
LAYER
  5
46
330
2
100
AcDbSymbolTableRecord
100
AcDbLayerTableRecord
  2
1
 70
     0
 62
     7
  6
CONTINUOUS
  0
ENDTAB
  0
TABLE
  2
STYLE
  5
3
330
0
100
AcDbSymbolTable
 70
     3
  0
STYLE
  5
11
330
3
100
AcDbSymbolTableRecord
100
AcDbTextStyleTableRecord
  2
STANDARD
 70
     0
 40
0.0
 41
1.0
 50
0.0
 71
     0
 42
0.2
  3
txt
  4

  0
STYLE
  5
30F
330
3
100
AcDbSymbolTableRecord
100
AcDbTextStyleTableRecord
  2
ISO-1
 70
     0
 40
0.0
 41
1.0
 50
0.0
 71
     0
 42
0.2
  3
isocp.shx
  4

  0
STYLE
  5
310
330
3
100
AcDbSymbolTableRecord
100
AcDbTextStyleTableRecord
  2
DWGDIRECTTEXTSTYLE
 70
     0
 40
0.0
 41
1.0
 50
0.0
 71
     0
 42
0.2
  3
ISOCP
  4
bigfont
  0
ENDTAB
  0
TABLE
  2
VIEW
  5
6
330
0
100
AcDbSymbolTable
 70
     8
  0
VIEW
  5
312
330
6
100
AcDbSymbolTableRecord
100
AcDbViewTableRecord
  2
TOP
 70
     0
 40
254.0
 10
622.546828
 20
382.395633
 41
254.0
 11
0.0
 21
0.0
 31
1.0
 12
0.0
 22
0.0
 32
0.0
 42
50.0
 43
867.908806
 44
-867.908806
 50
0.0
 71
     0
  0
VIEW
  5
313
330
6
100
AcDbSymbolTableRecord
100
AcDbViewTableRecord
  2
FRONT
 70
     0
 40
1319.822715
 10
0.0
 20
0.0
 41
254.0
 11
0.0
 21
-1.0
 31
0.0
 12
0.0
 22
0.0
 32
0.0
 42
50.0
 43
672.020833
 44
-672.020833
 50
0.0
 71
     0
  0
VIEW
  5
314
330
6
100
AcDbSymbolTableRecord
100
AcDbViewTableRecord
  2
RIGHT
 70
     0
 40
1319.822715
 10
0.0
 20
0.0
 41
254.0
 11
1.0
 21
0.0
 31
0.0
 12
0.0
 22
0.0
 32
0.0
 42
50.0
 43
672.020833
 44
-672.020833
 50
0.0
 71
     0
  0
VIEW
  5
315
330
6
100
AcDbSymbolTableRecord
100
AcDbViewTableRecord
  2
BACK
 70
     0
 40
1319.822715
 10
0.0
 20
0.0
 41
254.0
 11
0.0
 21
1.0
 31
0.0
 12
0.0
 22
0.0
 32
0.0
 42
50.0
 43
672.020833
 44
-672.020833
 50
0.0
 71
     0
  0
VIEW
  5
316
330
6
100
AcDbSymbolTableRecord
100
AcDbViewTableRecord
  2
BOTTOM
 70
     0
 40
254.0
 10
0.0
 20
0.0
 41
254.0
 11
0.0
 21
0.0
 31
-1.0
 12
0.0
 22
0.0
 32
0.0
 42
50.0
 43
659.911358
 44
-659.911358
 50
180.0
 71
     0
  0
VIEW
  5
317
330
6
100
AcDbSymbolTableRecord
100
AcDbViewTableRecord
  2
LEFT
 70
     0
 40
1319.822715
 10
0.0
 20
0.0
 41
254.0
 11
-1.0
 21
0.0
 31
0.0
 12
0.0
 22
0.0
 32
0.0
 42
50.0
 43
672.020833
 44
-672.020833
 50
0.0
 71
     0
  0
VIEW
  5
318
330
6
100
AcDbSymbolTableRecord
100
AcDbViewTableRecord
  2
TFR-ISO
 70
     0
 40
1285.020866
 10
0.0
 20
0.0
 41
359.210245
 11
0.5773502691896258
 21
-0.5773502691896258
 31
0.5773502691896258
 12
0.0
 22
0.0
 32
0.0
 42
50.0
 43
667.141407
 44
-667.141407
 50
0.0
 71
     0
  0
VIEW
  5
319
330
6
100
AcDbSymbolTableRecord
100
AcDbViewTableRecord
  2
TFR-TRI
 70
     0
 40
1357.434192
 10
0.0
 20
0.0
 41
357.33321
 11
0.7188730927569434
 21
-0.5850486126764431
 31
0.3754192287502549
 12
0.0
 22
0.0
 32
0.0
 42
50.0
 43
701.839477
 44
-701.839477
 50
0.0
 71
     0
  0
ENDTAB
  0
TABLE
  2
UCS
  5
7
330
0
100
AcDbSymbolTable
 70
     0
  0
ENDTAB
  0
TABLE
  2
APPID
  5
9
330
0
100
AcDbSymbolTable
 70
     1
  0
APPID
  5
12
330
9
100
AcDbSymbolTableRecord
100
AcDbRegAppTableRecord
  2
ACAD
 70
     0
  0
ENDTAB
  0
TABLE
  2
DIMSTYLE
  5
A
330
0
100
AcDbSymbolTable
 70
     1
  0
DIMSTYLE
105
27
330
A
100
AcDbSymbolTableRecord
100
AcDbDimStyleTableRecord
  2
STANDARD
 70
     0
  3

  4

  5

  6

  7

 40
1.0
 41
0.18
 42
0.0625
 43
0.38
 44
0.18
 45
0.0
 46
0.0
 47
0.0
 48
0.0
140
0.18
141
0.09
142
0.0
143
25.4
144
1.0
145
0.0
146
1.0
147
0.09
 71
     0
 72
     0
 73
     1
 74
     1
 75
     0
 76
     0
 77
     0
 78
     0
170
     0
171
     2
172
     0
173
     0
174
     0
175
     0
176
     0
177
     0
178
     0
270
     2
271
     4
272
     4
273
     2
274
     2
340
11
275
     0
280
     0
281
     0
282
     0
283
     1
284
     0
285
     0
286
     0
287
     3
288
     0
  0
ENDTAB
  0
TABLE
  2
BLOCK_RECORD
  5
1
330
0
100
AcDbSymbolTable
 70
     1
  0
BLOCK_RECORD
  5
1F
330
1
100
AcDbSymbolTableRecord
100
AcDbBlockTableRecord
  2
*MODEL_SPACE
  0
BLOCK_RECORD
  5
1B
330
1
100
AcDbSymbolTableRecord
100
AcDbBlockTableRecord
  2
*PAPER_SPACE
  0
ENDTAB
  0
ENDSEC
  0
SECTION
  2
BLOCKS
  0
BLOCK
  5
20
330
1F
100
AcDbEntity
  8
0
100
AcDbBlockBegin
  2
*MODEL_SPACE
 70
     0
 10
0.0
 20
0.0
 30
0.0
  3
*MODEL_SPACE
  1

  0
ENDBLK
  5
21
330
1F
100
AcDbEntity
  8
0
100
AcDbBlockEnd
  0
BLOCK
  5
1C
330
1B
100
AcDbEntity
 67
     1
  8
0
100
AcDbBlockBegin
  2
*PAPER_SPACE
 70
     0
 10
0.0
 20
0.0
 30
0.0
  3
*PAPER_SPACE
  1

  0
ENDBLK
  5
1D
330
1B
100
AcDbEntity
 67
     1
  8
0
100
AcDbBlockEnd
  0
ENDSEC
  0
SECTION
  2
ENTITIES
  0
LINE
  5
45
330
1F
100
AcDbEntity
  8
1
  6
CONTINUOUS
 62
   155
100
AcDbLine
 10
569.544735
 20
349.977596
 30
0.0
 11
569.544735
 21
352.286997
 31
0.0
  0
LINE
  5
47
330
1F
100
AcDbEntity
  8
1
  6
CONTINUOUS
 62
   155
100
AcDbLine
 10
567.544735
 20
342.132297
 30
0.0
 11
567.544735
 21
342.632375
 31
0.0
  0
LINE
  5
48
330
1F
100
AcDbEntity
  8
1
  6
CONTINUOUS
 62
   155
100
AcDbLine
 10
567.544735
 20
346.582219
 30
0.0
 11
567.544735
 21
346.744797
 31
0.0
  0
LINE
  5
49
330
1F
100
AcDbEntity
  8
1
  6
CONTINUOUS
 62
   155
100
AcDbLine
 10
423.744735
 20
345.632297
 30
0.0
 11
478.744735
 21
345.632297
 31
0.0
  0
LINE
  5
4A
330
1F
100
AcDbEntity
  8
1
  6
CONTINUOUS
 62
   155
100
AcDbLine
 10
502.944735
 20
352.286997
 30
0.0
 11
502.944735
 21
349.977596
 31
0.0
  0
LINE
  5
4B
330
1F
100
AcDbEntity
  8
1
  6
CONTINUOUS
 62
   155
100
AcDbLine
 10
480.279645
 20
355.132297
 30
0.0
 11
480.244735
 21
355.132297
 31
0.0
  0
LINE
  5
4C
330
1F
100
AcDbEntity
  8
1
  6
CONTINUOUS
 62
   155
100
AcDbLine
 10
504.294735
 20
352.332297
 30
0.0
 11
504.294735
 21
352.284447
 31
0.0
  0
LINE
  5
4D
330
1F
100
AcDbEntity
  8
1
  6
CONTINUOUS
 62
   155
100
AcDbLine
 10
504.294735
 20
349.980147
 30
0.0
 11
504.294735
 21
349.932297
 31
0.0
  0
LINE
  5
4E
330
1F
100
AcDbEntity
  8
1
  6
CONTINUOUS
 62
   155
100
AcDbLine
 10
564.194735
 20
352.332297
 30
0.0
 11
564.194735
 21
352.284447
 31
0.0
  0
LINE
  5
4F
330
1F
100
AcDbEntity
  8
1
  6
CONTINUOUS
 62
   155
100
AcDbLine
 10
564.194735
 20
349.980147
 30
0.0
 11
564.194735
 21
349.932297
 31
0.0
  0
LINE
  5
50
330
1F
100
AcDbEntity
  8
1
  6
CONTINUOUS
 62
   155
100
AcDbLine
 10
501.11794
 20
360.132297
 30
0.0
 11
567.37153
 21
360.132297
 31
0.0
  0
LINE
  5
51
330
1F
100
AcDbEntity
  8
1
  6
CONTINUOUS
 62
   155
100
AcDbLine
 10
500.944735
 20
360.132297
 30
0.0
 11
500.944735
 21
359.632219
 31
0.0
  0
LINE
  5
52
330
1F
100
AcDbEntity
  8
1
  6
CONTINUOUS
 62
   155
100
AcDbLine
 10
500.944735
 20
355.682297
 30
0.0
 11
500.944735
 21
355.519797
 31
0.0
  0
LINE
  5
53
330
1F
100
AcDbEntity
  8
1
  6
CONTINUOUS
 62
   155
100
AcDbLine
 10
567.37153
 20
360.132297
 30
0.0
 11
567.37153
 21
359.632219
 31
0.0
  0
LINE
  5
54
330
1F
100
AcDbEntity
  8
1
  6
CONTINUOUS
 62
   155
100
AcDbLine
 10
567.37153
 20
355.677844
 30
0.0
 11
567.37153
 21
355.476672
 31
0.0
  0
LINE
  5
55
330
1F
100
AcDbEntity
  8
1
  6
CONTINUOUS
 62
   155
100
AcDbLine
 10
480.279645
 20
347.132297
 30
0.0
 11
480.279645
 21
355.132297
 31
0.0
  0
LINE
  5
56
330
1F
100
AcDbEntity
  8
1
  6
CONTINUOUS
 62
   155
100
AcDbLine
 10
500.77153
 20
360.132297
 30
0.0
 11
500.77153
 21
359.632219
 31
0.0
  0
LINE
  5
57
330
1F
100
AcDbEntity
  8
1
  6
CONTINUOUS
 62
   155
100
AcDbLine
 10
500.77153
 20
355.677844
 30
0.0
 11
500.77153
 21
355.555734
 31
0.0
  0
LINE
  5
58
330
1F
100
AcDbEntity
  8
1
  6
CONTINUOUS
 62
   155
100
AcDbLine
 10
567.37153
 20
360.132297
 30
0.0
 11
567.544735
 21
360.132297
 31
0.0
  0
LINE
  5
59
330
1F
100
AcDbEntity
  8
1
  6
CONTINUOUS
 62
   155
100
AcDbLine
 10
501.11794
 20
342.132297
 30
0.0
 11
501.11794
 21
342.632375
 31
0.0
  0
LINE
  5
5A
330
1F
100
AcDbEntity
  8
1
  6
CONTINUOUS
 62
   155
100
AcDbLine
 10
501.11794
 20
346.58675
 30
0.0
 11
501.11794
 21
346.787922
 31
0.0
  0
LINE
  5
5B
330
1F
100
AcDbEntity
  8
1
  6
CONTINUOUS
 62
   155
100
AcDbLine
 10
567.71794
 20
360.132297
 30
0.0
 11
567.71794
 21
359.632219
 31
0.0
  0
LINE
  5
5C
330
1F
100
AcDbEntity
  8
1
  6
CONTINUOUS
 62
   155
100
AcDbLine
 10
567.71794
 20
355.677844
 30
0.0
 11
567.71794
 21
355.555734
 31
0.0
  0
LINE
  5
5D
330
1F
100
AcDbEntity
  8
1
  6
CONTINUOUS
 62
   155
100
AcDbLine
 10
567.544735
 20
360.132297
 30
0.0
 11
567.71794
 21
360.132297
 31
0.0
  0
LINE
  5
5E
330
1F
100
AcDbEntity
  8
1
  6
CONTINUOUS
 62
   155
100
AcDbLine
 10
567.544735
 20
360.132297
 30
0.0
 11
567.544735
 21
359.632219
 31
0.0
  0
LINE
  5
5F
330
1F
100
AcDbEntity
  8
1
  6
CONTINUOUS
 62
   155
100
AcDbLine
 10
567.544735
 20
355.682297
 30
0.0
 11
567.544735
 21
355.519797
 31
0.0
  0
LINE
  5
60
330
1F
100
AcDbEntity
  8
1
  6
CONTINUOUS
 62
   155
100
AcDbLine
 10
498.944735
 20
352.286997
 30
0.0
 11
498.944735
 21
349.977596
 31
0.0
  0
LINE
  5
61
330
1F
100
AcDbEntity
  8
1
  6
CONTINUOUS
 62
   155
100
AcDbLine
 10
605.444735
 20
358.632297
 30
0.0
 11
605.444735
 21
343.632297
 31
0.0
  0
LINE
  5
62
330
1F
100
AcDbEntity
  8
1
  6
CONTINUOUS
 62
   155
100
AcDbLine
 10
396.591145
 20
342.632297
 30
0.0
 11
397.259095
 21
342.632297
 31
0.0
  0
LINE
  5
63
330
1F
100
AcDbEntity
  8
1
  6
CONTINUOUS
 62
   155
100
AcDbLine
 10
501.11794
 20
360.132297
 30
0.0
 11
500.944735
 21
360.132297
 31
0.0
  0
LINE
  5
64
330
1F
100
AcDbEntity
  8
1
  6
CONTINUOUS
 62
   155
100
AcDbLine
 10
500.944735
 20
342.132297
 30
0.0
 11
500.944735
 21
342.632375
 31
0.0
  0
LINE
  5
65
330
1F
100
AcDbEntity
  8
1
  6
CONTINUOUS
 62
   155
100
AcDbLine
 10
500.944735
 20
346.582297
 30
0.0
 11
500.944735
 21
346.744797
 31
0.0
  0
LINE
  5
66
330
1F
100
AcDbEntity
  8
1
  6
CONTINUOUS
 62
   155
100
AcDbLine
 10
572.544735
 20
351.305502
 30
0.0
 11
572.544735
 21
350.959092
 31
0.0
  0
LINE
  5
67
330
1F
100
AcDbEntity
  8
1
  6
CONTINUOUS
 62
   155
100
AcDbLine
 10
554.944735
 20
357.382297
 30
0.0
 11
513.544735
 21
357.382297
 31
0.0
  0
LINE
  5
68
330
1F
100
AcDbEntity
  8
1
  6
CONTINUOUS
 62
   155
100
AcDbLine
 10
567.71794
 20
360.132297
 30
0.0
 11
577.244735
 21
360.132297
 31
0.0
  0
LINE
  5
69
330
1F
100
AcDbEntity
  8
1
  6
CONTINUOUS
 62
   155
100
AcDbLine
 10
491.244735
 20
342.132297
 30
0.0
 11
500.77153
 21
342.132297
 31
0.0
  0
LINE
  5
6A
330
1F
100
AcDbEntity
  8
1
  6
CONTINUOUS
 62
   155
100
AcDbLine
 10
495.944735
 20
351.305502
 30
0.0
 11
498.044735
 21
351.305502
 31
0.0
  0
LINE
  5
6B
330
1F
100
AcDbEntity
  8
1
  6
CONTINUOUS
 62
   155
100
AcDbLine
 10
576.744735
 20
342.632297
 30
0.0
 11
601.230376
 21
342.632297
 31
0.0
  0
LINE
  5
6C
330
1F
100
AcDbEntity
  8
1
  6
CONTINUOUS
 62
   155
100
AcDbLine
 10
576.744735
 20
359.632297
 30
0.0
 11
576.744735
 21
342.632297
 31
0.0
  0
LINE
  5
6D
330
1F
100
AcDbEntity
  8
1
  6
CONTINUOUS
 62
   155
100
AcDbLine
 10
495.944735
 20
350.959092
 30
0.0
 11
495.944735
 21
351.305502
 31
0.0
  0
LINE
  5
6E
330
1F
100
AcDbEntity
  8
1
  6
CONTINUOUS
 62
   155
100
AcDbLine
 10
491.244735
 20
360.132297
 30
0.0
 11
500.77153
 21
360.132297
 31
0.0
  0
LINE
  5
6F
330
1F
100
AcDbEntity
  8
1
  6
CONTINUOUS
 62
   155
100
AcDbLine
 10
495.944735
 20
350.959092
 30
0.0
 11
498.044735
 21
350.959092
 31
0.0
  0
LINE
  5
70
330
1F
100
AcDbEntity
  8
1
  6
CONTINUOUS
 62
   155
100
AcDbLine
 10
500.944735
 20
353.441698
 30
0.0
 11
502.944735
 21
352.286997
 31
0.0
  0
LINE
  5
71
330
1F
100
AcDbEntity
  8
1
  6
CONTINUOUS
 62
   155
100
AcDbLine
 10
500.944735
 20
353.441698
 30
0.0
 11
498.944735
 21
352.286997
 31
0.0
  0
LINE
  5
72
330
1F
100
AcDbEntity
  8
1
  6
CONTINUOUS
 62
   155
100
AcDbLine
 10
478.744735
 20
356.632297
 30
0.0
 11
423.744735
 21
356.632297
 31
0.0
  0
LINE
  5
73
330
1F
100
AcDbEntity
  8
1
  6
CONTINUOUS
 62
   155
100
AcDbLine
 10
501.11794
 20
342.132297
 30
0.0
 11
500.944735
 21
342.132297
 31
0.0
  0
LINE
  5
74
330
1F
100
AcDbEntity
  8
1
  6
CONTINUOUS
 62
   155
100
AcDbLine
 10
501.11794
 20
360.132297
 30
0.0
 11
501.11794
 21
359.632219
 31
0.0
  0
LINE
  5
75
330
1F
100
AcDbEntity
  8
1
  6
CONTINUOUS
 62
   155
100
AcDbLine
 10
501.11794
 20
355.677844
 30
0.0
 11
501.11794
 21
355.476672
 31
0.0
  0
LINE
  5
76
330
1F
100
AcDbEntity
  8
1
  6
CONTINUOUS
 62
   155
100
AcDbLine
 10
394.944735
 20
342.632297
 30
0.0
 11
396.191145
 21
342.632297
 31
0.0
  0
LINE
  5
77
330
1F
100
AcDbEntity
  8
1
  6
CONTINUOUS
 62
   155
100
AcDbLine
 10
396.191145
 20
359.632297
 30
0.0
 11
394.944735
 21
359.632297
 31
0.0
  0
LINE
  5
78
330
1F
100
AcDbEntity
  8
1
  6
CONTINUOUS
 62
   155
100
AcDbLine
 10
480.244735
 20
347.132297
 30
0.0
 11
480.279645
 21
347.132297
 31
0.0
  0
LINE
  5
79
330
1F
100
AcDbEntity
  8
1
  6
CONTINUOUS
 62
   155
100
AcDbLine
 10
602.698325
 20
359.632297
 30
0.0
 11
602.698325
 21
342.632297
 31
0.0
  0
LINE
  5
7A
330
1F
100
AcDbEntity
  8
1
  6
CONTINUOUS
 62
   155
100
AcDbLine
 10
422.209825
 20
347.132297
 30
0.0
 11
422.244735
 21
347.132297
 31
0.0
  0
LINE
  5
7B
330
1F
100
AcDbEntity
  8
1
  6
CONTINUOUS
 62
   155
100
AcDbLine
 10
422.244735
 20
355.132297
 30
0.0
 11
422.244735
 21
347.132297
 31
0.0
  0
LINE
  5
7C
330
1F
100
AcDbEntity
  8
1
  6
CONTINUOUS
 62
   155
100
AcDbLine
 10
422.244735
 20
355.132297
 30
0.0
 11
422.209825
 21
355.132297
 31
0.0
  0
LINE
  5
7D
330
1F
100
AcDbEntity
  8
1
  6
CONTINUOUS
 62
   155
100
AcDbLine
 10
480.244735
 20
347.132297
 30
0.0
 11
480.244735
 21
355.132297
 31
0.0
  0
LINE
  5
7E
330
1F
100
AcDbEntity
  8
1
  6
CONTINUOUS
 62
   155
100
AcDbLine
 10
601.230376
 20
342.132297
 30
0.0
 11
577.244735
 21
342.132297
 31
0.0
  0
LINE
  5
7F
330
1F
100
AcDbEntity
  8
1
  6
CONTINUOUS
 62
   155
100
AcDbLine
 10
396.591145
 20
359.632297
 30
0.0
 11
396.591145
 21
342.632297
 31
0.0
  0
LINE
  5
80
330
1F
100
AcDbEntity
  8
1
  6
CONTINUOUS
 62
   155
100
AcDbLine
 10
565.544735
 20
349.977596
 30
0.0
 11
565.544735
 21
352.286997
 31
0.0
  0
LINE
  5
81
330
1F
100
AcDbEntity
  8
1
  6
CONTINUOUS
 62
   155
100
AcDbLine
 10
567.71794
 20
342.132297
 30
0.0
 11
577.244735
 21
342.132297
 31
0.0
  0
LINE
  5
82
330
1F
100
AcDbEntity
  8
1
  6
CONTINUOUS
 62
   155
100
AcDbLine
 10
394.944735
 20
360.132297
 30
0.0
 11
396.191145
 21
360.132297
 31
0.0
  0
LINE
  5
83
330
1F
100
AcDbEntity
  8
1
  6
CONTINUOUS
 62
   155
100
AcDbLine
 10
492.626957
 20
343.332297
 30
0.0
 11
573.894735
 21
343.332297
 31
0.0
  0
LINE
  5
84
330
1F
100
AcDbEntity
  8
1
  6
CONTINUOUS
 62
   155
100
AcDbLine
 10
575.862513
 20
358.932297
 30
0.0
 11
492.626957
 21
358.932297
 31
0.0
  0
LINE
  5
85
330
1F
100
AcDbEntity
  8
1
  6
CONTINUOUS
 62
   155
100
AcDbLine
 10
494.294735
 20
359.632297
 30
0.0
 11
574.194735
 21
359.632297
 31
0.0
  0
LINE
  5
86
330
1F
100
AcDbEntity
  8
1
  6
CONTINUOUS
 62
   155
100
AcDbLine
 10
500.77153
 20
342.132297
 30
0.0
 11
500.77153
 21
342.632375
 31
0.0
  0
LINE
  5
87
330
1F
100
AcDbEntity
  8
1
  6
CONTINUOUS
 62
   155
100
AcDbLine
 10
500.77153
 20
346.58675
 30
0.0
 11
500.77153
 21
346.708859
 31
0.0
  0
LINE
  5
88
330
1F
100
AcDbEntity
  8
1
  6
CONTINUOUS
 62
   155
100
AcDbLine
 10
500.944735
 20
342.132297
 30
0.0
 11
500.77153
 21
342.132297
 31
0.0
  0
LINE
  5
89
330
1F
100
AcDbEntity
  8
1
  6
CONTINUOUS
 62
   155
100
AcDbLine
 10
567.344735
 20
355.732297
 30
0.0
 11
568.744735
 21
355.732297
 31
0.0
  0
LINE
  5
8A
330
1F
100
AcDbEntity
  8
1
  6
CONTINUOUS
 62
   155
100
AcDbLine
 10
602.698325
 20
342.632297
 30
0.0
 11
603.944735
 21
342.632297
 31
0.0
  0
LINE
  5
8B
330
1F
100
AcDbEntity
  8
1
  6
CONTINUOUS
 62
   155
100
AcDbLine
 10
603.944735
 20
342.132297
 30
0.0
 11
602.698325
 21
342.132297
 31
0.0
  0
LINE
  5
8C
330
1F
100
AcDbEntity
  8
1
  6
CONTINUOUS
 62
   155
100
AcDbLine
 10
603.944735
 20
359.632297
 30
0.0
 11
602.698325
 21
359.632297
 31
0.0
  0
LINE
  5
8D
330
1F
100
AcDbEntity
  8
1
  6
CONTINUOUS
 62
   155
100
AcDbLine
 10
602.698325
 20
360.132297
 30
0.0
 11
603.944735
 21
360.132297
 31
0.0
  0
LINE
  5
8E
330
1F
100
AcDbEntity
  8
1
  6
CONTINUOUS
 62
   155
100
AcDbLine
 10
499.744735
 20
355.732297
 30
0.0
 11
501.144735
 21
355.732297
 31
0.0
  0
LINE
  5
8F
330
1F
100
AcDbEntity
  8
1
  6
CONTINUOUS
 62
   155
100
AcDbLine
 10
513.544735
 20
344.882297
 30
0.0
 11
554.944735
 21
344.882297
 31
0.0
  0
LINE
  5
90
330
1F
100
AcDbEntity
  8
1
  6
CONTINUOUS
 62
   155
100
AcDbLine
 10
573.894735
 20
343.332297
 30
0.0
 11
576.244735
 21
345.682297
 31
0.0
  0
LINE
  5
91
330
1F
100
AcDbEntity
  8
1
  6
CONTINUOUS
 62
   155
100
AcDbLine
 10
572.544735
 20
351.132297
 30
0.0
 11
570.444735
 21
351.132297
 31
0.0
  0
LINE
  5
92
330
1F
100
AcDbEntity
  8
1
  6
CONTINUOUS
 62
   155
100
AcDbLine
 10
556.444735
 20
346.382297
 30
0.0
 11
556.444735
 21
355.882297
 31
0.0
  0
LINE
  5
93
330
1F
100
AcDbEntity
  8
1
  6
CONTINUOUS
 62
   155
100
AcDbLine
 10
568.744735
 20
346.532297
 30
0.0
 11
567.344735
 21
346.532297
 31
0.0
  0
LINE
  5
94
330
1F
100
AcDbEntity
  8
1
  6
CONTINUOUS
 62
   155
100
AcDbLine
 10
422.209825
 20
355.132297
 30
0.0
 11
422.209825
 21
347.132297
 31
0.0
  0
LINE
  5
95
330
1F
100
AcDbEntity
  8
1
  6
CONTINUOUS
 62
   155
100
AcDbLine
 10
601.230376
 20
359.632297
 30
0.0
 11
576.744735
 21
359.632297
 31
0.0
  0
LINE
  5
96
330
1F
100
AcDbEntity
  8
1
  6
CONTINUOUS
 62
   155
100
AcDbLine
 10
567.544735
 20
348.822896
 30
0.0
 11
569.544735
 21
349.977596
 31
0.0
  0
LINE
  5
97
330
1F
100
AcDbEntity
  8
1
  6
CONTINUOUS
 62
   155
100
AcDbLine
 10
573.194735
 20
342.632297
 30
0.0
 11
494.294735
 21
342.632297
 31
0.0
  0
LINE
  5
98
330
1F
100
AcDbEntity
  8
1
  6
CONTINUOUS
 62
   155
100
AcDbLine
 10
567.71794
 20
342.132297
 30
0.0
 11
567.71794
 21
342.632375
 31
0.0
  0
LINE
  5
99
330
1F
100
AcDbEntity
  8
1
  6
CONTINUOUS
 62
   155
100
AcDbLine
 10
567.71794
 20
346.58675
 30
0.0
 11
567.71794
 21
346.708859
 31
0.0
  0
LINE
  5
9A
330
1F
100
AcDbEntity
  8
1
  6
CONTINUOUS
 62
   155
100
AcDbLine
 10
572.544735
 20
350.959092
 30
0.0
 11
570.444735
 21
350.959092
 31
0.0
  0
LINE
  5
9B
330
1F
100
AcDbEntity
  8
1
  6
CONTINUOUS
 62
   155
100
AcDbLine
 10
567.544735
 20
342.132297
 30
0.0
 11
567.71794
 21
342.132297
 31
0.0
  0
LINE
  5
9C
330
1F
100
AcDbEntity
  8
1
  6
CONTINUOUS
 62
   155
100
AcDbLine
 10
500.944735
 20
360.132297
 30
0.0
 11
500.77153
 21
360.132297
 31
0.0
  0
LINE
  5
9D
330
1F
100
AcDbEntity
  8
1
  6
CONTINUOUS
 62
   155
100
AcDbLine
 10
569.544735
 20
352.286997
 30
0.0
 11
567.544735
 21
353.441698
 31
0.0
  0
LINE
  5
9E
330
1F
100
AcDbEntity
  8
1
  6
CONTINUOUS
 62
   155
100
AcDbLine
 10
498.944735
 20
349.977596
 30
0.0
 11
500.944735
 21
348.822896
 31
0.0
  0
LINE
  5
9F
330
1F
100
AcDbEntity
  8
1
  6
CONTINUOUS
 62
   155
100
AcDbLine
 10
498.044735
 20
350.959092
 30
0.0
 11
498.044735
 21
351.305502
 31
0.0
  0
LINE
  5
A0
330
1F
100
AcDbEntity
  8
1
  6
CONTINUOUS
 62
   155
100
AcDbLine
 10
501.11794
 20
342.132297
 30
0.0
 11
567.37153
 21
342.132297
 31
0.0
  0
LINE
  5
A1
330
1F
100
AcDbEntity
  8
1
  6
CONTINUOUS
 62
   155
100
AcDbLine
 10
495.944735
 20
351.132297
 30
0.0
 11
498.044735
 21
351.132297
 31
0.0
  0
LINE
  5
A2
330
1F
100
AcDbEntity
  8
1
  6
CONTINUOUS
 62
   155
100
AcDbLine
 10
500.944735
 20
348.822896
 30
0.0
 11
502.944735
 21
349.977596
 31
0.0
  0
LINE
  5
A3
330
1F
100
AcDbEntity
  8
1
  6
CONTINUOUS
 62
   155
100
AcDbLine
 10
478.744735
 20
356.667207
 30
0.0
 11
423.744735
 21
356.667207
 31
0.0
  0
LINE
  5
A4
330
1F
100
AcDbEntity
  8
1
  6
CONTINUOUS
 62
   155
100
AcDbLine
 10
491.744735
 20
359.632297
 30
0.0
 11
397.659095
 21
359.632297
 31
0.0
  0
LINE
  5
A5
330
1F
100
AcDbEntity
  8
1
  6
CONTINUOUS
 62
   155
100
AcDbLine
 10
570.444735
 20
351.305502
 30
0.0
 11
570.444735
 21
350.959092
 31
0.0
  0
LINE
  5
A6
330
1F
100
AcDbEntity
  8
1
  6
CONTINUOUS
 62
   155
100
AcDbLine
 10
393.944735
 20
358.632297
 30
0.0
 11
393.944735
 21
343.632297
 31
0.0
  0
LINE
  5
A7
330
1F
100
AcDbEntity
  8
1
  6
CONTINUOUS
 62
   155
100
AcDbLine
 10
396.191145
 20
342.132297
 30
0.0
 11
394.944735
 21
342.132297
 31
0.0
  0
LINE
  5
A8
330
1F
100
AcDbEntity
  8
1
  6
CONTINUOUS
 62
   155
100
AcDbLine
 10
393.444735
 20
343.632297
 30
0.0
 11
393.444735
 21
358.632297
 31
0.0
  0
LINE
  5
A9
330
1F
100
AcDbEntity
  8
1
  6
CONTINUOUS
 62
   155
100
AcDbLine
 10
602.548325
 20
342.132297
 30
0.0
 11
601.880376
 21
342.132297
 31
0.0
  0
LINE
  5
AA
330
1F
100
AcDbEntity
  8
1
  6
CONTINUOUS
 62
   155
100
AcDbLine
 10
601.630376
 20
342.632297
 30
0.0
 11
602.298325
 21
342.632297
 31
0.0
  0
LINE
  5
AB
330
1F
100
AcDbEntity
  8
1
  6
CONTINUOUS
 62
   155
100
AcDbLine
 10
602.298325
 20
342.632297
 30
0.0
 11
602.298325
 21
359.632297
 31
0.0
  0
LINE
  5
AC
330
1F
100
AcDbEntity
  8
1
  6
CONTINUOUS
 62
   155
100
AcDbLine
 10
397.009095
 20
342.132297
 30
0.0
 11
396.341145
 21
342.132297
 31
0.0
  0
LINE
  5
AD
330
1F
100
AcDbEntity
  8
1
  6
CONTINUOUS
 62
   155
100
AcDbLine
 10
396.341145
 20
360.132297
 30
0.0
 11
397.009095
 21
360.132297
 31
0.0
  0
LINE
  5
AE
330
1F
100
AcDbEntity
  8
1
  6
CONTINUOUS
 62
   155
100
AcDbLine
 10
397.259095
 20
359.632297
 30
0.0
 11
396.591145
 21
359.632297
 31
0.0
  0
LINE
  5
AF
330
1F
100
AcDbEntity
  8
1
  6
CONTINUOUS
 62
   155
100
AcDbLine
 10
397.259095
 20
342.632297
 30
0.0
 11
397.259095
 21
359.632297
 31
0.0
  0
LINE
  5
B0
330
1F
100
AcDbEntity
  8
1
  6
CONTINUOUS
 62
   155
100
AcDbLine
 10
396.191145
 20
342.632297
 30
0.0
 11
396.191145
 21
359.632297
 31
0.0
  0
LINE
  5
B1
330
1F
100
AcDbEntity
  8
1
  6
CONTINUOUS
 62
   155
100
AcDbLine
 10
397.659095
 20
359.632297
 30
0.0
 11
397.659095
 21
342.632297
 31
0.0
  0
LINE
  5
B2
330
1F
100
AcDbEntity
  8
1
  6
CONTINUOUS
 62
   155
100
AcDbLine
 10
601.230376
 20
342.632297
 30
0.0
 11
601.230376
 21
359.632297
 31
0.0
  0
LINE
  5
B3
330
1F
100
AcDbEntity
  8
1
  6
CONTINUOUS
 62
   155
100
AcDbLine
 10
601.880376
 20
360.132297
 30
0.0
 11
602.548325
 21
360.132297
 31
0.0
  0
LINE
  5
B4
330
1F
100
AcDbEntity
  8
1
  6
CONTINUOUS
 62
   155
100
AcDbLine
 10
601.630376
 20
359.632297
 30
0.0
 11
601.630376
 21
342.632297
 31
0.0
  0
LINE
  5
B5
330
1F
100
AcDbEntity
  8
1
  6
CONTINUOUS
 62
   155
100
AcDbLine
 10
602.298325
 20
359.632297
 30
0.0
 11
601.630376
 21
359.632297
 31
0.0
  0
LINE
  5
B6
330
1F
100
AcDbEntity
  8
1
  6
CONTINUOUS
 62
   155
100
AcDbLine
 10
604.944735
 20
343.632297
 30
0.0
 11
604.944735
 21
358.632297
 31
0.0
  0
LINE
  5
B7
330
1F
100
AcDbEntity
  8
1
  6
CONTINUOUS
 62
   155
100
AcDbLine
 10
567.544735
 20
353.441698
 30
0.0
 11
565.544735
 21
352.286997
 31
0.0
  0
LINE
  5
B8
330
1F
100
AcDbEntity
  8
1
  6
CONTINUOUS
 62
   155
100
AcDbLine
 10
423.744735
 20
345.597387
 30
0.0
 11
478.744735
 21
345.597387
 31
0.0
  0
LINE
  5
B9
330
1F
100
AcDbEntity
  8
1
  6
CONTINUOUS
 62
   155
100
AcDbLine
 10
397.659095
 20
360.132297
 30
0.0
 11
491.244735
 21
360.132297
 31
0.0
  0
LINE
  5
BA
330
1F
100
AcDbEntity
  8
1
  6
CONTINUOUS
 62
   155
100
AcDbLine
 10
491.244735
 20
342.132297
 30
0.0
 11
397.659095
 21
342.132297
 31
0.0
  0
LINE
  5
BB
330
1F
100
AcDbEntity
  8
1
  6
CONTINUOUS
 62
   155
100
AcDbLine
 10
577.244735
 20
360.132297
 30
0.0
 11
601.230376
 21
360.132297
 31
0.0
  0
LINE
  5
BC
330
1F
100
AcDbEntity
  8
1
  6
CONTINUOUS
 62
   155
100
AcDbLine
 10
478.744735
 20
345.597387
 30
0.0
 11
478.744735
 21
345.632297
 31
0.0
  0
LINE
  5
BD
330
1F
100
AcDbEntity
  8
1
  6
CONTINUOUS
 62
   155
100
AcDbLine
 10
478.744735
 20
356.632297
 30
0.0
 11
478.744735
 21
356.667207
 31
0.0
  0
LINE
  5
BE
330
1F
100
AcDbEntity
  8
1
  6
CONTINUOUS
 62
   155
100
AcDbLine
 10
423.744735
 20
345.632297
 30
0.0
 11
423.744735
 21
345.597387
 31
0.0
  0
LINE
  5
BF
330
1F
100
AcDbEntity
  8
1
  6
CONTINUOUS
 62
   155
100
AcDbLine
 10
423.744735
 20
356.667207
 30
0.0
 11
423.744735
 21
356.632297
 31
0.0
  0
LINE
  5
C0
330
1F
100
AcDbEntity
  8
1
  6
CONTINUOUS
 62
   155
100
AcDbLine
 10
501.144735
 20
346.532297
 30
0.0
 11
499.744735
 21
346.532297
 31
0.0
  0
LINE
  5
C1
330
1F
100
AcDbEntity
  8
1
  6
CONTINUOUS
 62
   155
100
AcDbLine
 10
572.544735
 20
351.305502
 30
0.0
 11
570.444735
 21
351.305502
 31
0.0
  0
LINE
  5
C2
330
1F
100
AcDbEntity
  8
1
  6
CONTINUOUS
 62
   155
100
AcDbLine
 10
512.044735
 20
355.882297
 30
0.0
 11
512.044735
 21
346.382297
 31
0.0
  0
LINE
  5
C3
330
1F
100
AcDbEntity
  8
1
  6
CONTINUOUS
 62
   155
100
AcDbLine
 10
567.37153
 20
342.132297
 30
0.0
 11
567.544735
 21
342.132297
 31
0.0
  0
LINE
  5
C4
330
1F
100
AcDbEntity
  8
1
  6
CONTINUOUS
 62
   155
100
AcDbLine
 10
576.244735
 20
345.682297
 30
0.0
 11
576.244735
 21
357.932011
 31
0.0
  0
LINE
  5
C5
330
1F
100
AcDbEntity
  8
1
  6
CONTINUOUS
 62
   155
100
AcDbLine
 10
567.544735
 20
348.822896
 30
0.0
 11
565.544735
 21
349.977596
 31
0.0
  0
LINE
  5
C6
330
1F
100
AcDbEntity
  8
1
  6
CONTINUOUS
 62
   155
100
AcDbLine
 10
492.244735
 20
357.932011
 30
0.0
 11
492.244735
 21
344.332583
 31
0.0
  0
LINE
  5
C7
330
1F
100
AcDbEntity
  8
1
  6
CONTINUOUS
 62
   155
100
AcDbLine
 10
567.37153
 20
342.132297
 30
0.0
 11
567.37153
 21
342.632375
 31
0.0
  0
LINE
  5
C8
330
1F
100
AcDbEntity
  8
1
  6
CONTINUOUS
 62
   155
100
AcDbLine
 10
567.37153
 20
346.58675
 30
0.0
 11
567.37153
 21
346.787922
 31
0.0
  0
LINE
  5
C9
330
1F
100
AcDbEntity
  8
1
  6
CONTINUOUS
 62
   155
100
AcDbLine
 10
491.744735
 20
359.632297
 30
0.0
 11
491.744735
 21
342.632297
 31
0.0
  0
LINE
  5
CA
330
1F
100
AcDbEntity
  8
1
  6
CONTINUOUS
 62
   155
100
AcDbLine
 10
397.659095
 20
342.632297
 30
0.0
 11
491.744735
 21
342.632297
 31
0.0
  0
LINE
  5
CB
330
1F
100
AcDbEntity
  8
1
  6
CONTINUOUS
 62
   155
100
AcDbLine
 10
602.698325
 20
342.132297
 30
0.0
 11
602.548325
 21
342.132297
 31
0.0
  0
LINE
  5
CC
330
1F
100
AcDbEntity
  8
1
  6
CONTINUOUS
 62
   155
100
AcDbLine
 10
601.880376
 20
342.132297
 30
0.0
 11
601.230376
 21
342.132297
 31
0.0
  0
LINE
  5
CD
330
1F
100
AcDbEntity
  8
1
  6
CONTINUOUS
 62
   155
100
AcDbLine
 10
602.548325
 20
360.132297
 30
0.0
 11
602.698325
 21
360.132297
 31
0.0
  0
LINE
  5
CE
330
1F
100
AcDbEntity
  8
1
  6
CONTINUOUS
 62
   155
100
AcDbLine
 10
396.591145
 20
359.632297
 30
0.0
 11
396.191145
 21
359.632297
 31
0.0
  0
LINE
  5
CF
330
1F
100
AcDbEntity
  8
1
  6
CONTINUOUS
 62
   155
100
AcDbLine
 10
396.191145
 20
359.632297
 30
0.0
 11
396.191145
 21
360.132297
 31
0.0
  0
LINE
  5
D0
330
1F
100
AcDbEntity
  8
1
  6
CONTINUOUS
 62
   155
100
AcDbLine
 10
603.944735
 20
360.132297
 30
0.0
 11
603.944735
 21
359.632297
 31
0.0
  0
LINE
  5
D1
330
1F
100
AcDbEntity
  8
1
  6
CONTINUOUS
 62
   155
100
AcDbLine
 10
605.444735
 20
358.632297
 30
0.0
 11
604.944735
 21
358.632297
 31
0.0
  0
LINE
  5
D2
330
1F
100
AcDbEntity
  8
1
  6
CONTINUOUS
 62
   155
100
AcDbLine
 10
602.698325
 20
342.132297
 30
0.0
 11
602.698325
 21
342.632297
 31
0.0
  0
LINE
  5
D3
330
1F
100
AcDbEntity
  8
1
  6
CONTINUOUS
 62
   155
100
AcDbLine
 10
603.944735
 20
342.132297
 30
0.0
 11
603.944735
 21
342.632297
 31
0.0
  0
LINE
  5
D4
330
1F
100
AcDbEntity
  8
1
  6
CONTINUOUS
 62
   155
100
AcDbLine
 10
602.698325
 20
360.132297
 30
0.0
 11
602.698325
 21
359.632297
 31
0.0
  0
LINE
  5
D5
330
1F
100
AcDbEntity
  8
1
  6
CONTINUOUS
 62
   155
100
AcDbLine
 10
601.230376
 20
342.632297
 30
0.0
 11
601.630376
 21
342.632297
 31
0.0
  0
LINE
  5
D6
330
1F
100
AcDbEntity
  8
1
  6
CONTINUOUS
 62
   155
100
AcDbLine
 10
605.444735
 20
343.632297
 30
0.0
 11
604.944735
 21
343.632297
 31
0.0
  0
LINE
  5
D7
330
1F
100
AcDbEntity
  8
1
  6
CONTINUOUS
 62
   155
100
AcDbLine
 10
601.230376
 20
360.132297
 30
0.0
 11
601.230376
 21
359.632297
 31
0.0
  0
LINE
  5
D8
330
1F
100
AcDbEntity
  8
1
  6
CONTINUOUS
 62
   155
100
AcDbLine
 10
394.944735
 20
359.632297
 30
0.0
 11
394.944735
 21
360.132297
 31
0.0
  0
LINE
  5
D9
330
1F
100
AcDbEntity
  8
1
  6
CONTINUOUS
 62
   155
100
AcDbLine
 10
393.944735
 20
343.632297
 30
0.0
 11
393.444735
 21
343.632297
 31
0.0
  0
LINE
  5
DA
330
1F
100
AcDbEntity
  8
1
  6
CONTINUOUS
 62
   155
100
AcDbLine
 10
396.191145
 20
342.632297
 30
0.0
 11
396.191145
 21
342.132297
 31
0.0
  0
LINE
  5
DB
330
1F
100
AcDbEntity
  8
1
  6
CONTINUOUS
 62
   155
100
AcDbLine
 10
396.341145
 20
342.132297
 30
0.0
 11
396.191145
 21
342.132297
 31
0.0
  0
LINE
  5
DC
330
1F
100
AcDbEntity
  8
1
  6
CONTINUOUS
 62
   155
100
AcDbLine
 10
396.191145
 20
360.132297
 30
0.0
 11
396.341145
 21
360.132297
 31
0.0
  0
LINE
  5
DD
330
1F
100
AcDbEntity
  8
1
  6
CONTINUOUS
 62
   155
100
AcDbLine
 10
394.944735
 20
342.632297
 30
0.0
 11
394.944735
 21
342.132297
 31
0.0
  0
LINE
  5
DE
330
1F
100
AcDbEntity
  8
1
  6
CONTINUOUS
 62
   155
100
AcDbLine
 10
393.944735
 20
358.632297
 30
0.0
 11
393.444735
 21
358.632297
 31
0.0
  0
LINE
  5
DF
330
1F
100
AcDbEntity
  8
1
  6
CONTINUOUS
 62
   155
100
AcDbLine
 10
602.298325
 20
342.632297
 30
0.0
 11
602.698325
 21
342.632297
 31
0.0
  0
LINE
  5
E0
330
1F
100
AcDbEntity
  8
1
  6
CONTINUOUS
 62
   155
100
AcDbLine
 10
602.698325
 20
359.632297
 30
0.0
 11
602.298325
 21
359.632297
 31
0.0
  0
LINE
  5
E1
330
1F
100
AcDbEntity
  8
1
  6
CONTINUOUS
 62
   155
100
AcDbLine
 10
397.659095
 20
342.132297
 30
0.0
 11
397.009095
 21
342.132297
 31
0.0
  0
LINE
  5
E2
330
1F
100
AcDbEntity
  8
1
  6
CONTINUOUS
 62
   155
100
AcDbLine
 10
397.659095
 20
342.632297
 30
0.0
 11
397.659095
 21
342.132297
 31
0.0
  0
LINE
  5
E3
330
1F
100
AcDbEntity
  8
1
  6
CONTINUOUS
 62
   155
100
AcDbLine
 10
397.009095
 20
360.132297
 30
0.0
 11
397.659095
 21
360.132297
 31
0.0
  0
LINE
  5
E4
330
1F
100
AcDbEntity
  8
1
  6
CONTINUOUS
 62
   155
100
AcDbLine
 10
397.259095
 20
342.632297
 30
0.0
 11
397.659095
 21
342.632297
 31
0.0
  0
LINE
  5
E5
330
1F
100
AcDbEntity
  8
1
  6
CONTINUOUS
 62
   155
100
AcDbLine
 10
397.659095
 20
359.632297
 30
0.0
 11
397.259095
 21
359.632297
 31
0.0
  0
LINE
  5
E6
330
1F
100
AcDbEntity
  8
1
  6
CONTINUOUS
 62
   155
100
AcDbLine
 10
396.191145
 20
342.632297
 30
0.0
 11
396.591145
 21
342.632297
 31
0.0
  0
LINE
  5
E7
330
1F
100
AcDbEntity
  8
1
  6
CONTINUOUS
 62
   155
100
AcDbLine
 10
601.230376
 20
342.132297
 30
0.0
 11
601.230376
 21
342.632297
 31
0.0
  0
LINE
  5
E8
330
1F
100
AcDbEntity
  8
1
  6
CONTINUOUS
 62
   155
100
AcDbLine
 10
397.659095
 20
359.632297
 30
0.0
 11
397.659095
 21
360.132297
 31
0.0
  0
LINE
  5
E9
330
1F
100
AcDbEntity
  8
1
  6
CONTINUOUS
 62
   155
100
AcDbLine
 10
601.630376
 20
359.632297
 30
0.0
 11
601.230376
 21
359.632297
 31
0.0
  0
LINE
  5
EA
330
1F
100
AcDbEntity
  8
1
  6
CONTINUOUS
 62
   155
100
AcDbLine
 10
601.230376
 20
360.132297
 30
0.0
 11
601.880376
 21
360.132297
 31
0.0
  0
LINE
  5
EB
330
1F
100
AcDbEntity
  8
1
  6
CONTINUOUS
 62
   155
100
AcDbLine
 10
493.356507
 20
359.380899
 30
0.0
 11
494.294735
 21
359.632297
 31
0.0
  0
LINE
  5
EC
330
1F
100
AcDbEntity
  8
1
  6
CONTINUOUS
 62
   155
100
AcDbLine
 10
574.194735
 20
359.632297
 30
0.0
 11
575.132964
 21
359.380899
 31
0.0
  0
LINE
  5
ED
330
1F
100
AcDbEntity
  8
1
  6
CONTINUOUS
 62
   155
100
AcDbLine
 10
573.894735
 20
343.332297
 30
0.0
 11
573.194735
 21
342.632297
 31
0.0
  0
LINE
  5
EE
330
1F
100
AcDbEntity
  8
1
  6
CONTINUOUS
 62
   155
100
AcDbLine
 10
494.294735
 20
342.632297
 30
0.0
 11
493.356507
 21
342.883694
 31
0.0
  0
LINE
  5
EF
330
1F
100
AcDbEntity
  8
1
  6
CONTINUOUS
 62
   155
100
AcDbLine
 10
638.948727
 20
358.632297
 30
0.0
 11
638.548727
 21
358.632297
 31
0.0
  0
LINE
  5
F0
330
1F
100
AcDbEntity
  8
1
  6
CONTINUOUS
 62
   155
100
AcDbLine
 10
638.948727
 20
343.632297
 30
0.0
 11
638.948727
 21
358.632297
 31
0.0
  0
LINE
  5
F1
330
1F
100
AcDbEntity
  8
1
  6
CONTINUOUS
 62
   155
100
AcDbLine
 10
638.548727
 20
343.632297
 30
0.0
 11
638.948727
 21
343.632297
 31
0.0
  0
LINE
  5
F2
330
1F
100
AcDbEntity
  8
1
  6
CONTINUOUS
 62
   155
100
AcDbLine
 10
638.548727
 20
358.632297
 30
0.0
 11
638.548727
 21
343.632297
 31
0.0
  0
LINE
  5
F3
330
1F
100
AcDbEntity
  8
1
  6
CONTINUOUS
 62
   155
100
AcDbLine
 10
638.948727
 20
342.132297
 30
0.0
 11
638.548727
 21
342.132297
 31
0.0
  0
LINE
  5
F4
330
1F
100
AcDbEntity
  8
1
  6
CONTINUOUS
 62
   155
100
AcDbLine
 10
639.448727
 20
358.632297
 30
0.0
 11
639.448727
 21
343.632297
 31
0.0
  0
LINE
  5
F5
330
1F
100
AcDbEntity
  8
1
  6
CONTINUOUS
 62
   155
100
AcDbLine
 10
638.548727
 20
360.132297
 30
0.0
 11
638.948727
 21
360.132297
 31
0.0
  0
LINE
  5
F6
330
1F
100
AcDbEntity
  8
1
  6
CONTINUOUS
 62
   155
100
AcDbLine
 10
637.848727
 20
347.132297
 30
0.0
 11
637.848727
 21
342.132297
 31
0.0
  0
LINE
  5
F7
330
1F
100
AcDbEntity
  8
1
  6
CONTINUOUS
 62
   155
100
AcDbLine
 10
638.548727
 20
347.132297
 30
0.0
 11
637.848727
 21
347.132297
 31
0.0
  0
LINE
  5
F8
330
1F
100
AcDbEntity
  8
1
  6
CONTINUOUS
 62
   155
100
AcDbLine
 10
637.848727
 20
342.132297
 30
0.0
 11
638.548727
 21
342.132297
 31
0.0
  0
LINE
  5
F9
330
1F
100
AcDbEntity
  8
1
  6
CONTINUOUS
 62
   155
100
AcDbLine
 10
636.848727
 20
347.132297
 30
0.0
 11
636.848727
 21
355.132297
 31
0.0
  0
LINE
  5
FA
330
1F
100
AcDbEntity
  8
1
  6
CONTINUOUS
 62
   155
100
AcDbLine
 10
637.848727
 20
360.132297
 30
0.0
 11
637.848727
 21
355.132297
 31
0.0
  0
LINE
  5
FB
330
1F
100
AcDbEntity
  8
1
  6
CONTINUOUS
 62
   155
100
AcDbLine
 10
638.548727
 20
355.132297
 30
0.0
 11
637.848727
 21
355.132297
 31
0.0
  0
LINE
  5
FC
330
1F
100
AcDbEntity
  8
1
  6
CONTINUOUS
 62
   155
100
AcDbLine
 10
637.848727
 20
360.132297
 30
0.0
 11
638.548727
 21
360.132297
 31
0.0
  0
LINE
  5
FD
330
1F
100
AcDbEntity
  8
1
  6
CONTINUOUS
 62
   155
100
AcDbLine
 10
629.848727
 20
344.132297
 30
0.0
 11
629.848727
 21
342.132297
 31
0.0
  0
LINE
  5
FE
330
1F
100
AcDbEntity
  8
1
  6
CONTINUOUS
 62
   155
100
AcDbLine
 10
635.548727
 20
347.132297
 30
0.0
 11
635.548727
 21
344.132297
 31
0.0
  0
LINE
  5
FF
330
1F
100
AcDbEntity
  8
1
  6
CONTINUOUS
 62
   155
100
AcDbLine
 10
635.548727
 20
355.132297
 30
0.0
 11
635.548727
 21
358.132297
 31
0.0
  0
LINE
  5
100
330
1F
100
AcDbEntity
  8
1
  6
CONTINUOUS
 62
   155
100
AcDbLine
 10
629.848727
 20
360.132297
 30
0.0
 11
629.848727
 21
358.132297
 31
0.0
  0
LINE
  5
101
330
1F
100
AcDbEntity
  8
1
  6
CONTINUOUS
 62
   155
100
AcDbLine
 10
630.848727
 20
347.632297
 30
0.0
 11
636.848727
 21
347.632297
 31
0.0
  0
LINE
  5
102
330
1F
100
AcDbEntity
  8
1
  6
CONTINUOUS
 62
   155
100
AcDbLine
 10
636.848727
 20
354.632297
 30
0.0
 11
630.848727
 21
354.632297
 31
0.0
  0
LINE
  5
103
330
1F
100
AcDbEntity
  8
1
  6
CONTINUOUS
 62
   155
100
AcDbLine
 10
630.848727
 20
344.632297
 30
0.0
 11
629.848727
 21
344.632297
 31
0.0
  0
LINE
  5
104
330
1F
100
AcDbEntity
  8
1
  6
CONTINUOUS
 62
   155
100
AcDbLine
 10
635.548695
 20
344.632297
 30
0.0
 11
630.848727
 21
344.632297
 31
0.0
  0
LINE
  5
105
330
1F
100
AcDbEntity
  8
1
  6
CONTINUOUS
 62
   155
100
AcDbLine
 10
635.548695
 20
357.632297
 30
0.0
 11
630.848727
 21
357.632297
 31
0.0
  0
LINE
  5
106
330
1F
100
AcDbEntity
  8
1
  6
CONTINUOUS
 62
   155
100
AcDbLine
 10
630.848727
 20
357.632297
 30
0.0
 11
629.848727
 21
357.632297
 31
0.0
  0
LINE
  5
107
330
1F
100
AcDbEntity
  8
1
  6
CONTINUOUS
 62
   155
100
AcDbLine
 10
630.848727
 20
357.632297
 30
0.0
 11
630.848727
 21
354.632305
 31
0.0
  0
LINE
  5
108
330
1F
100
AcDbEntity
  8
1
  6
CONTINUOUS
 62
   155
100
AcDbLine
 10
630.848727
 20
347.632289
 30
0.0
 11
630.848727
 21
344.632297
 31
0.0
  0
LINE
  5
109
330
1F
100
AcDbEntity
  8
1
  6
CONTINUOUS
 62
   155
100
AcDbLine
 10
629.848727
 20
344.632375
 30
0.0
 11
629.848727
 21
357.632219
 31
0.0
  0
LINE
  5
10A
330
1F
100
AcDbEntity
  8
1
  6
CONTINUOUS
 62
   155
100
AcDbLine
 10
638.948727
 20
342.132297
 30
0.0
 11
638.948727
 21
343.632297
 31
0.0
  0
LINE
  5
10B
330
1F
100
AcDbEntity
  8
1
  6
CONTINUOUS
 62
   155
100
AcDbLine
 10
638.548727
 20
342.132297
 30
0.0
 11
638.548727
 21
343.632297
 31
0.0
  0
LINE
  5
10C
330
1F
100
AcDbEntity
  8
1
  6
CONTINUOUS
 62
   155
100
AcDbLine
 10
639.448727
 20
343.632297
 30
0.0
 11
638.948727
 21
343.632297
 31
0.0
  0
LINE
  5
10D
330
1F
100
AcDbEntity
  8
1
  6
CONTINUOUS
 62
   155
100
AcDbLine
 10
639.448727
 20
358.632297
 30
0.0
 11
638.948727
 21
358.632297
 31
0.0
  0
LINE
  5
10E
330
1F
100
AcDbEntity
  8
1
  6
CONTINUOUS
 62
   155
100
AcDbLine
 10
639.448727
 20
359.632297
 30
0.0
 11
639.448727
 21
358.632297
 31
0.0
  0
LINE
  5
10F
330
1F
100
AcDbEntity
  8
1
  6
CONTINUOUS
 62
   155
100
AcDbLine
 10
638.948727
 20
358.632297
 30
0.0
 11
638.948727
 21
360.132297
 31
0.0
  0
LINE
  5
110
330
1F
100
AcDbEntity
  8
1
  6
CONTINUOUS
 62
   155
100
AcDbLine
 10
638.548727
 20
360.132297
 30
0.0
 11
638.548727
 21
358.632297
 31
0.0
  0
LINE
  5
111
330
1F
100
AcDbEntity
  8
1
  6
CONTINUOUS
 62
   155
100
AcDbLine
 10
639.448727
 20
342.632297
 30
0.0
 11
639.448727
 21
343.632297
 31
0.0
  0
LINE
  5
112
330
1F
100
AcDbEntity
  8
1
  6
CONTINUOUS
 62
   155
100
AcDbLine
 10
629.848727
 20
344.132297
 30
0.0
 11
635.548727
 21
344.132297
 31
0.0
  0
LINE
  5
113
330
1F
100
AcDbEntity
  8
1
  6
CONTINUOUS
 62
   155
100
AcDbLine
 10
635.548727
 20
347.132297
 30
0.0
 11
637.848727
 21
347.132297
 31
0.0
  0
LINE
  5
114
330
1F
100
AcDbEntity
  8
1
  6
CONTINUOUS
 62
   155
100
AcDbLine
 10
629.848727
 20
342.132297
 30
0.0
 11
637.848727
 21
342.132297
 31
0.0
  0
LINE
  5
115
330
1F
100
AcDbEntity
  8
1
  6
CONTINUOUS
 62
   155
100
AcDbLine
 10
635.548727
 20
358.132297
 30
0.0
 11
629.848727
 21
358.132297
 31
0.0
  0
LINE
  5
116
330
1F
100
AcDbEntity
  8
1
  6
CONTINUOUS
 62
   155
100
AcDbLine
 10
637.848727
 20
355.132297
 30
0.0
 11
635.548727
 21
355.132297
 31
0.0
  0
LINE
  5
117
330
1F
100
AcDbEntity
  8
1
  6
CONTINUOUS
 62
   155
100
AcDbLine
 10
629.848727
 20
360.132297
 30
0.0
 11
637.848727
 21
360.132297
 31
0.0
  0
LINE
  5
118
330
1F
100
AcDbEntity
  8
1
  6
CONTINUOUS
 62
   155
100
AcDbLine
 10
630.848727
 20
354.632297
 30
0.0
 11
630.848727
 21
347.632297
 31
0.0
  0
LINE
  5
119
330
1F
100
AcDbEntity
  8
1
  6
CONTINUOUS
 62
   155
100
AcDbLine
 10
629.848727
 20
344.132297
 30
0.0
 11
629.848727
 21
344.632297
 31
0.0
  0
LINE
  5
11A
330
1F
100
AcDbEntity
  8
1
  6
CONTINUOUS
 62
   155
100
AcDbLine
 10
629.848727
 20
357.632297
 30
0.0
 11
629.848727
 21
358.132297
 31
0.0
  0
LINE
  5
11B
330
1F
100
AcDbEntity
  8
1
  6
CONTINUOUS
 62
   155
100
AcDbLine
 10
865.99443
 20
358.132297
 30
0.0
 11
872.49443
 21
358.132297
 31
0.0
  0
LINE
  5
11C
330
1F
100
AcDbEntity
  8
1
  6
CONTINUOUS
 62
   155
100
AcDbLine
 10
852.19443
 20
356.754482
 30
0.0
 11
797.19443
 21
356.754482
 31
0.0
  0
LINE
  5
11D
330
1F
100
AcDbEntity
  8
1
  6
CONTINUOUS
 62
   155
100
AcDbLine
 10
852.19443
 20
345.632297
 30
0.0
 11
797.19443
 21
345.632297
 31
0.0
  0
LINE
  5
11E
330
1F
100
AcDbEntity
  8
1
  6
CONTINUOUS
 62
   155
100
AcDbLine
 10
880.156675
 20
347.132297
 30
0.0
 11
880.156675
 21
344.132297
 31
0.0
  0
LINE
  5
11F
330
1F
100
AcDbEntity
  8
1
  6
CONTINUOUS
 62
   155
100
AcDbLine
 10
680.49443
 20
360.132297
 30
0.0
 11
680.49443
 21
358.132297
 31
0.0
  0
LINE
  5
120
330
1F
100
AcDbEntity
  8
1
  6
CONTINUOUS
 62
   155
100
AcDbLine
 10
853.69443
 20
355.132297
 30
0.0
 11
853.69443
 21
347.132297
 31
0.0
  0
LINE
  5
121
330
1F
100
AcDbEntity
  8
1
  6
CONTINUOUS
 62
   155
100
AcDbLine
 10
671.99443
 20
342.132297
 30
0.0
 11
672.49443
 21
342.132297
 31
0.0
  0
LINE
  5
122
330
1F
100
AcDbEntity
  8
1
  6
CONTINUOUS
 62
   155
100
AcDbLine
 10
877.99443
 20
344.132297
 30
0.0
 11
877.99443
 21
347.132297
 31
0.0
  0
LINE
  5
123
330
1F
100
AcDbEntity
  8
1
  6
CONTINUOUS
 62
   155
100
AcDbLine
 10
686.99443
 20
358.132297
 30
0.0
 11
680.49443
 21
358.132297
 31
0.0
  0
LINE
  5
124
330
1F
100
AcDbEntity
  8
1
  6
CONTINUOUS
 62
   155
100
AcDbLine
 10
865.99443
 20
353.632297
 30
0.0
 11
866.848679
 21
353.632297
 31
0.0
  0
LINE
  5
125
330
1F
100
AcDbEntity
  8
1
  6
CONTINUOUS
 62
   155
100
AcDbLine
 10
882.49443
 20
358.632297
 30
0.0
 11
882.49443
 21
343.632297
 31
0.0
  0
LINE
  5
126
330
1F
100
AcDbEntity
  8
1
  6
CONTINUOUS
 62
   155
100
AcDbLine
 10
865.49443
 20
344.632297
 30
0.0
 11
865.49443
 21
343.632297
 31
0.0
  0
LINE
  5
127
330
1F
100
AcDbEntity
  8
1
  6
CONTINUOUS
 62
   155
100
AcDbLine
 10
865.49443
 20
348.132297
 30
0.0
 11
865.49443
 21
344.632297
 31
0.0
  0
LINE
  5
128
330
1F
100
AcDbEntity
  8
1
  6
CONTINUOUS
 62
   155
100
AcDbLine
 10
696.69443
 20
358.632297
 30
0.0
 11
696.69443
 21
343.632297
 31
0.0
  0
LINE
  5
129
330
1F
100
AcDbEntity
  8
1
  6
CONTINUOUS
 62
   155
100
AcDbLine
 10
672.49443
 20
360.132297
 30
0.0
 11
672.49443
 21
355.132297
 31
0.0
  0
LINE
  5
12A
330
1F
100
AcDbEntity
  8
1
  6
CONTINUOUS
 62
   155
100
AcDbLine
 10
680.49443
 20
342.132297
 30
0.0
 11
872.49443
 21
342.132297
 31
0.0
  0
LINE
  5
12B
330
1F
100
AcDbEntity
  8
1
  6
CONTINUOUS
 62
   155
100
AcDbLine
 10
872.49443
 20
344.132297
 30
0.0
 11
865.99443
 21
344.132297
 31
0.0
  0
LINE
  5
12C
330
1F
100
AcDbEntity
  8
1
  6
CONTINUOUS
 62
   155
100
AcDbLine
 10
872.49443
 20
360.132297
 30
0.0
 11
872.49443
 21
358.132297
 31
0.0
  0
LINE
  5
12D
330
1F
100
AcDbEntity
  8
1
  6
CONTINUOUS
 62
   155
100
AcDbLine
 10
795.572245
 20
355.132297
 30
0.0
 11
795.572245
 21
347.132297
 31
0.0
  0
LINE
  5
12E
330
1F
100
AcDbEntity
  8
1
  6
CONTINUOUS
 62
   155
100
AcDbLine
 10
687.49443
 20
354.132297
 30
0.0
 11
687.49443
 21
357.632297
 31
0.0
  0
LINE
  5
12F
330
1F
100
AcDbEntity
  8
1
  6
CONTINUOUS
 62
   155
100
AcDbLine
 10
797.19443
 20
356.754482
 30
0.0
 11
797.19443
 21
356.632297
 31
0.0
  0
LINE
  5
130
330
1F
100
AcDbEntity
  8
1
  6
CONTINUOUS
 62
   155
100
AcDbLine
 10
686.99443
 20
348.632297
 30
0.0
 11
686.140181
 21
348.632297
 31
0.0
  0
LINE
  5
131
330
1F
100
AcDbEntity
  8
1
  6
CONTINUOUS
 62
   155
100
AcDbLine
 10
797.19443
 20
356.632297
 30
0.0
 11
852.19443
 21
356.632297
 31
0.0
  0
LINE
  5
132
330
1F
100
AcDbEntity
  8
1
  6
CONTINUOUS
 62
   155
100
AcDbLine
 10
687.49443
 20
357.632297
 30
0.0
 11
687.49443
 21
358.632297
 31
0.0
  0
LINE
  5
133
330
1F
100
AcDbEntity
  8
1
  6
CONTINUOUS
 62
   155
100
AcDbLine
 10
852.19443
 20
345.510111
 30
0.0
 11
852.19443
 21
345.632297
 31
0.0
  0
LINE
  5
134
330
1F
100
AcDbEntity
  8
1
  6
CONTINUOUS
 62
   155
100
AcDbLine
 10
865.49443
 20
358.632297
 30
0.0
 11
865.49443
 21
357.632297
 31
0.0
  0
LINE
  5
135
330
1F
100
AcDbEntity
  8
1
  6
CONTINUOUS
 62
   155
100
AcDbLine
 10
687.99443
 20
359.132297
 30
0.0
 11
696.19443
 21
359.132297
 31
0.0
  0
LINE
  5
136
330
1F
100
AcDbEntity
  8
1
  6
CONTINUOUS
 62
   155
100
AcDbLine
 10
880.49443
 20
360.132297
 30
0.0
 11
880.99443
 21
360.132297
 31
0.0
  0
LINE
  5
137
330
1F
100
AcDbEntity
  8
1
  6
CONTINUOUS
 62
   155
100
AcDbLine
 10
880.49443
 20
342.132297
 30
0.0
 11
880.99443
 21
342.132297
 31
0.0
  0
LINE
  5
138
330
1F
100
AcDbEntity
  8
1
  6
CONTINUOUS
 62
   155
100
AcDbLine
 10
877.99443
 20
347.132297
 30
0.0
 11
877.99443
 21
355.132297
 31
0.0
  0
LINE
  5
139
330
1F
100
AcDbEntity
  8
1
  6
CONTINUOUS
 62
   155
100
AcDbLine
 10
674.99443
 20
347.132297
 30
0.0
 11
674.99443
 21
344.132297
 31
0.0
  0
LINE
  5
13A
330
1F
100
AcDbEntity
  8
1
  6
CONTINUOUS
 62
   155
100
AcDbLine
 10
674.99443
 20
347.132297
 30
0.0
 11
674.99443
 21
355.132297
 31
0.0
  0
LINE
  5
13B
330
1F
100
AcDbEntity
  8
1
  6
CONTINUOUS
 62
   155
100
AcDbLine
 10
671.99443
 20
360.132297
 30
0.0
 11
672.49443
 21
360.132297
 31
0.0
  0
LINE
  5
13C
330
1F
100
AcDbEntity
  8
1
  6
CONTINUOUS
 62
   155
100
AcDbLine
 10
786.99443
 20
346.132297
 30
0.0
 11
786.99443
 21
356.132297
 31
0.0
  0
LINE
  5
13D
330
1F
100
AcDbEntity
  8
1
  6
CONTINUOUS
 62
   155
100
AcDbLine
 10
696.19443
 20
343.132297
 30
0.0
 11
687.99443
 21
343.132297
 31
0.0
  0
LINE
  5
13E
330
1F
100
AcDbEntity
  8
1
  6
CONTINUOUS
 62
   155
100
AcDbLine
 10
680.49443
 20
344.132297
 30
0.0
 11
686.99443
 21
344.132297
 31
0.0
  0
LINE
  5
13F
330
1F
100
AcDbEntity
  8
1
  6
CONTINUOUS
 62
   155
100
AcDbLine
 10
792.99443
 20
356.132297
 30
0.0
 11
792.99443
 21
346.132297
 31
0.0
  0
LINE
  5
140
330
1F
100
AcDbEntity
  8
1
  6
CONTINUOUS
 62
   155
100
AcDbLine
 10
865.49443
 20
357.632297
 30
0.0
 11
865.49443
 21
354.132297
 31
0.0
  0
LINE
  5
141
330
1F
100
AcDbEntity
  8
1
  6
CONTINUOUS
 62
   155
100
AcDbLine
 10
797.19443
 20
345.510111
 30
0.0
 11
852.19443
 21
345.510111
 31
0.0
  0
LINE
  5
142
330
1F
100
AcDbEntity
  8
1
  6
CONTINUOUS
 62
   155
100
AcDbLine
 10
877.99443
 20
347.132297
 30
0.0
 11
880.156675
 21
347.132297
 31
0.0
  0
LINE
  5
143
330
1F
100
AcDbEntity
  8
1
  6
CONTINUOUS
 62
   155
100
AcDbLine
 10
795.69443
 20
355.132297
 30
0.0
 11
795.572245
 21
355.132297
 31
0.0
  0
LINE
  5
144
330
1F
100
AcDbEntity
  8
1
  6
CONTINUOUS
 62
   155
100
AcDbLine
 10
672.49443
 20
347.132297
 30
0.0
 11
672.49443
 21
355.132297
 31
0.0
  0
LINE
  5
145
330
1F
100
AcDbEntity
  8
1
  6
CONTINUOUS
 62
   155
100
AcDbLine
 10
856.29443
 20
343.632297
 30
0.0
 11
856.29443
 21
358.632297
 31
0.0
  0
LINE
  5
146
330
1F
100
AcDbEntity
  8
1
  6
CONTINUOUS
 62
   155
100
AcDbLine
 10
687.49443
 20
343.632297
 30
0.0
 11
687.49443
 21
344.632297
 31
0.0
  0
LINE
  5
147
330
1F
100
AcDbEntity
  8
1
  6
CONTINUOUS
 62
   155
100
AcDbLine
 10
687.49443
 20
344.632297
 30
0.0
 11
687.49443
 21
348.132297
 31
0.0
  0
LINE
  5
148
330
1F
100
AcDbEntity
  8
1
  6
CONTINUOUS
 62
   155
100
AcDbLine
 10
670.49443
 20
358.632297
 30
0.0
 11
670.49443
 21
343.632297
 31
0.0
  0
LINE
  5
149
330
1F
100
AcDbEntity
  8
1
  6
CONTINUOUS
 62
   155
100
AcDbLine
 10
880.49443
 20
347.132297
 30
0.0
 11
880.49443
 21
342.132297
 31
0.0
  0
LINE
  5
14A
330
1F
100
AcDbEntity
  8
1
  6
CONTINUOUS
 62
   155
100
AcDbLine
 10
680.49443
 20
360.132297
 30
0.0
 11
872.49443
 21
360.132297
 31
0.0
  0
LINE
  5
14B
330
1F
100
AcDbEntity
  8
1
  6
CONTINUOUS
 62
   155
100
AcDbLine
 10
880.156675
 20
355.132297
 30
0.0
 11
880.156675
 21
358.132297
 31
0.0
  0
LINE
  5
14C
330
1F
100
AcDbEntity
  8
1
  6
CONTINUOUS
 62
   155
100
AcDbLine
 10
686.140181
 20
353.632297
 30
0.0
 11
686.99443
 21
353.632297
 31
0.0
  0
LINE
  5
14D
330
1F
100
AcDbEntity
  8
1
  6
CONTINUOUS
 62
   155
100
AcDbLine
 10
872.49443
 20
344.132297
 30
0.0
 11
872.49443
 21
342.132297
 31
0.0
  0
LINE
  5
14E
330
1F
100
AcDbEntity
  8
1
  6
CONTINUOUS
 62
   155
100
AcDbLine
 10
866.848679
 20
348.632297
 30
0.0
 11
865.99443
 21
348.632297
 31
0.0
  0
LINE
  5
14F
330
1F
100
AcDbEntity
  8
1
  6
CONTINUOUS
 62
   155
100
AcDbLine
 10
852.19443
 20
356.632297
 30
0.0
 11
852.19443
 21
356.754482
 31
0.0
  0
LINE
  5
150
330
1F
100
AcDbEntity
  8
1
  6
CONTINUOUS
 62
   155
100
AcDbLine
 10
880.49443
 20
360.132297
 30
0.0
 11
880.49443
 21
355.132297
 31
0.0
  0
LINE
  5
151
330
1F
100
AcDbEntity
  8
1
  6
CONTINUOUS
 62
   155
100
AcDbLine
 10
795.572245
 20
347.132297
 30
0.0
 11
795.69443
 21
347.132297
 31
0.0
  0
LINE
  5
152
330
1F
100
AcDbEntity
  8
1
  6
CONTINUOUS
 62
   155
100
AcDbLine
 10
880.49443
 20
347.132297
 30
0.0
 11
880.49443
 21
355.132297
 31
0.0
  0
LINE
  5
153
330
1F
100
AcDbEntity
  8
1
  6
CONTINUOUS
 62
   155
100
AcDbLine
 10
853.69443
 20
347.132297
 30
0.0
 11
853.816616
 21
347.132297
 31
0.0
  0
LINE
  5
154
330
1F
100
AcDbEntity
  8
1
  6
CONTINUOUS
 62
   155
100
AcDbLine
 10
795.69443
 20
347.132297
 30
0.0
 11
795.69443
 21
355.132297
 31
0.0
  0
LINE
  5
155
330
1F
100
AcDbEntity
  8
1
  6
CONTINUOUS
 62
   155
100
AcDbLine
 10
680.49443
 20
344.132297
 30
0.0
 11
680.49443
 21
342.132297
 31
0.0
  0
LINE
  5
156
330
1F
100
AcDbEntity
  8
1
  6
CONTINUOUS
 62
   155
100
AcDbLine
 10
853.816616
 20
355.132297
 30
0.0
 11
853.69443
 21
355.132297
 31
0.0
  0
LINE
  5
157
330
1F
100
AcDbEntity
  8
1
  6
CONTINUOUS
 62
   155
100
AcDbLine
 10
672.49443
 20
347.132297
 30
0.0
 11
672.49443
 21
342.132297
 31
0.0
  0
LINE
  5
158
330
1F
100
AcDbEntity
  8
1
  6
CONTINUOUS
 62
   155
100
AcDbLine
 10
672.832185
 20
355.132297
 30
0.0
 11
674.99443
 21
355.132297
 31
0.0
  0
LINE
  5
159
330
1F
100
AcDbEntity
  8
1
  6
CONTINUOUS
 62
   155
100
AcDbLine
 10
856.79443
 20
359.132297
 30
0.0
 11
864.99443
 21
359.132297
 31
0.0
  0
LINE
  5
15A
330
1F
100
AcDbEntity
  8
1
  6
CONTINUOUS
 62
   155
100
AcDbLine
 10
797.19443
 20
345.632297
 30
0.0
 11
797.19443
 21
345.510111
 31
0.0
  0
LINE
  5
15B
330
1F
100
AcDbEntity
  8
1
  6
CONTINUOUS
 62
   155
100
AcDbLine
 10
672.832185
 20
344.132297
 30
0.0
 11
672.832185
 21
347.132297
 31
0.0
  0
LINE
  5
15C
330
1F
100
AcDbEntity
  8
1
  6
CONTINUOUS
 62
   155
100
AcDbLine
 10
853.816616
 20
347.132297
 30
0.0
 11
853.816616
 21
355.132297
 31
0.0
  0
LINE
  5
15D
330
1F
100
AcDbEntity
  8
1
  6
CONTINUOUS
 62
   155
100
AcDbLine
 10
674.99443
 20
355.132297
 30
0.0
 11
674.99443
 21
358.132297
 31
0.0
  0
LINE
  5
15E
330
1F
100
AcDbEntity
  8
1
  6
CONTINUOUS
 62
   155
100
AcDbLine
 10
877.99443
 20
355.132297
 30
0.0
 11
880.156675
 21
355.132297
 31
0.0
  0
LINE
  5
15F
330
1F
100
AcDbEntity
  8
1
  6
CONTINUOUS
 62
   155
100
AcDbLine
 10
672.832185
 20
347.132297
 30
0.0
 11
674.99443
 21
347.132297
 31
0.0
  0
LINE
  5
160
330
1F
100
AcDbEntity
  8
1
  6
CONTINUOUS
 62
   155
100
AcDbLine
 10
877.99443
 20
358.132297
 30
0.0
 11
877.99443
 21
355.132297
 31
0.0
  0
LINE
  5
161
330
1F
100
AcDbEntity
  8
1
  6
CONTINUOUS
 62
   155
100
AcDbLine
 10
864.99443
 20
343.132297
 30
0.0
 11
856.79443
 21
343.132297
 31
0.0
  0
LINE
  5
162
330
1F
100
AcDbEntity
  8
1
  6
CONTINUOUS
 62
   155
100
AcDbLine
 10
672.832185
 20
358.132297
 30
0.0
 11
672.832185
 21
355.132297
 31
0.0
  0
LINE
  5
163
330
1F
100
AcDbEntity
  8
1
  6
CONTINUOUS
 62
   155
100
AcDbLine
 10
880.49443
 20
347.132297
 30
0.0
 11
880.156675
 21
347.132297
 31
0.0
  0
LINE
  5
164
330
1F
100
AcDbEntity
  8
1
  6
CONTINUOUS
 62
   155
100
AcDbLine
 10
672.832185
 20
358.132297
 30
0.0
 11
680.49443
 21
358.132297
 31
0.0
  0
LINE
  5
165
330
1F
100
AcDbEntity
  8
1
  6
CONTINUOUS
 62
   155
100
AcDbLine
 10
880.49443
 20
342.132297
 30
0.0
 11
872.49443
 21
342.132297
 31
0.0
  0
LINE
  5
166
330
1F
100
AcDbEntity
  8
1
  6
CONTINUOUS
 62
   155
100
AcDbLine
 10
872.49443
 20
344.132297
 30
0.0
 11
880.156675
 21
344.132297
 31
0.0
  0
LINE
  5
167
330
1F
100
AcDbEntity
  8
1
  6
CONTINUOUS
 62
   155
100
AcDbLine
 10
880.156675
 20
358.132297
 30
0.0
 11
872.49443
 21
358.132297
 31
0.0
  0
LINE
  5
168
330
1F
100
AcDbEntity
  8
1
  6
CONTINUOUS
 62
   155
100
AcDbLine
 10
880.49443
 20
360.132297
 30
0.0
 11
872.49443
 21
360.132297
 31
0.0
  0
LINE
  5
169
330
1F
100
AcDbEntity
  8
1
  6
CONTINUOUS
 62
   155
100
AcDbLine
 10
672.49443
 20
347.132297
 30
0.0
 11
672.832185
 21
347.132297
 31
0.0
  0
LINE
  5
16A
330
1F
100
AcDbEntity
  8
1
  6
CONTINUOUS
 62
   155
100
AcDbLine
 10
880.49443
 20
355.132297
 30
0.0
 11
880.156675
 21
355.132297
 31
0.0
  0
LINE
  5
16B
330
1F
100
AcDbEntity
  8
1
  6
CONTINUOUS
 62
   155
100
AcDbLine
 10
672.49443
 20
360.132297
 30
0.0
 11
680.49443
 21
360.132297
 31
0.0
  0
LINE
  5
16C
330
1F
100
AcDbEntity
  8
1
  6
CONTINUOUS
 62
   155
100
AcDbLine
 10
672.49443
 20
342.132297
 30
0.0
 11
680.49443
 21
342.132297
 31
0.0
  0
LINE
  5
16D
330
1F
100
AcDbEntity
  8
1
  6
CONTINUOUS
 62
   155
100
AcDbLine
 10
680.49443
 20
344.132297
 30
0.0
 11
672.832185
 21
344.132297
 31
0.0
  0
LINE
  5
16E
330
1F
100
AcDbEntity
  8
1
  6
CONTINUOUS
 62
   155
100
AcDbLine
 10
672.49443
 20
355.132297
 30
0.0
 11
672.832185
 21
355.132297
 31
0.0
  0
LINE
  5
16F
330
1F
100
AcDbEntity
  8
1
  6
CONTINUOUS
 62
   155
100
AcDbLine
 10
494.294735
 20
406.060363
 30
0.0
 11
494.294735
 21
405.260363
 31
0.0
  0
LINE
  5
170
330
1F
100
AcDbEntity
  8
1
  6
CONTINUOUS
 62
   155
100
AcDbLine
 10
504.144735
 20
402.26039
 30
0.0
 11
504.144735
 21
402.360368
 31
0.0
  0
LINE
  5
171
330
1F
100
AcDbEntity
  8
1
  6
CONTINUOUS
 62
   155
100
AcDbLine
 10
395.444735
 20
405.760363
 30
0.0
 11
395.444735
 21
406.460363
 31
0.0
  0
LINE
  5
172
330
1F
100
AcDbEntity
  8
1
  6
CONTINUOUS
 62
   155
100
AcDbLine
 10
601.230376
 20
406.260363
 30
0.0
 11
577.244735
 21
406.260363
 31
0.0
  0
LINE
  5
173
330
1F
100
AcDbEntity
  8
1
  6
CONTINUOUS
 62
   155
100
AcDbLine
 10
492.244735
 20
404.560363
 30
0.0
 11
492.244735
 21
406.760363
 31
0.0
  0
LINE
  5
174
330
1F
100
AcDbEntity
  8
1
  6
CONTINUOUS
 62
   155
100
AcDbLine
 10
573.894735
 20
402.360363
 30
0.0
 11
567.659973
 21
402.360363
 31
0.0
  0
LINE
  5
175
330
1F
100
AcDbEntity
  8
1
  6
CONTINUOUS
 62
   155
100
AcDbLine
 10
567.428868
 20
402.360363
 30
0.0
 11
501.061029
 21
402.360363
 31
0.0
  0
LINE
  5
176
330
1F
100
AcDbEntity
  8
1
  6
CONTINUOUS
 62
   155
100
AcDbLine
 10
500.829924
 20
402.360363
 30
0.0
 11
492.626957
 21
402.360363
 31
0.0
  0
LINE
  5
177
330
1F
100
AcDbEntity
  8
1
  6
CONTINUOUS
 62
   155
100
AcDbLine
 10
573.194735
 20
403.860363
 30
0.0
 11
494.294735
 21
403.860363
 31
0.0
  0
LINE
  5
178
330
1F
100
AcDbEntity
  8
1
  6
CONTINUOUS
 62
   155
100
AcDbLine
 10
491.244735
 20
402.260363
 30
0.0
 11
491.244735
 21
406.260363
 31
0.0
  0
LINE
  5
179
330
1F
100
AcDbEntity
  8
1
  6
CONTINUOUS
 62
   155
100
AcDbLine
 10
602.698325
 20
407.360363
 30
0.0
 11
603.944735
 21
407.360363
 31
0.0
  0
LINE
  5
17A
330
1F
100
AcDbEntity
  8
1
  6
CONTINUOUS
 62
   155
100
AcDbLine
 10
491.244735
 20
402.260363
 30
0.0
 11
500.77153
 21
402.260363
 31
0.0
  0
LINE
  5
17B
330
1F
100
AcDbEntity
  8
1
  6
CONTINUOUS
 62
   155
100
AcDbLine
 10
567.544735
 20
402.560363
 30
0.0
 11
567.71794
 21
402.260363
 31
0.0
  0
LINE
  5
17C
330
1F
100
AcDbEntity
  8
1
  6
CONTINUOUS
 62
   155
100
AcDbLine
 10
501.11794
 20
402.260363
 30
0.0
 11
567.37153
 21
402.260363
 31
0.0
  0
LINE
  5
17D
330
1F
100
AcDbEntity
  8
1
  6
CONTINUOUS
 62
   155
100
AcDbLine
 10
500.944735
 20
402.560363
 30
0.0
 11
500.77153
 21
402.260363
 31
0.0
  0
LINE
  5
17E
330
1F
100
AcDbEntity
  8
1
  6
CONTINUOUS
 62
   155
100
AcDbLine
 10
567.71794
 20
402.260363
 30
0.0
 11
577.244735
 21
402.260363
 31
0.0
  0
LINE
  5
17F
330
1F
100
AcDbEntity
  8
1
  6
CONTINUOUS
 62
   155
100
AcDbLine
 10
491.244735
 20
406.260363
 30
0.0
 11
397.659095
 21
406.260363
 31
0.0
  0
LINE
  5
180
330
1F
100
AcDbEntity
  8
1
  6
CONTINUOUS
 62
   155
100
AcDbLine
 10
491.744735
 20
406.760363
 30
0.0
 11
491.744735
 21
402.260363
 31
0.0
  0
LINE
  5
181
330
1F
100
AcDbEntity
  8
1
  6
CONTINUOUS
 62
   155
100
AcDbLine
 10
576.744735
 20
406.760363
 30
0.0
 11
601.230376
 21
406.760363
 31
0.0
  0
LINE
  5
182
330
1F
100
AcDbEntity
  8
1
  6
CONTINUOUS
 62
   155
100
AcDbLine
 10
605.444735
 20
406.860363
 30
0.0
 11
605.444735
 21
406.460363
 31
0.0
  0
LINE
  5
183
330
1F
100
AcDbEntity
  8
1
  6
CONTINUOUS
 62
   155
100
AcDbLine
 10
603.444735
 20
406.460363
 30
0.0
 11
603.444735
 21
405.760363
 31
0.0
  0
LINE
  5
184
330
1F
100
AcDbEntity
  8
1
  6
CONTINUOUS
 62
   155
100
AcDbLine
 10
573.894735
 20
404.560363
 30
0.0
 11
576.244735
 21
404.560363
 31
0.0
  0
LINE
  5
185
330
1F
100
AcDbEntity
  8
1
  6
CONTINUOUS
 62
   155
100
AcDbLine
 10
397.659095
 20
406.760363
 30
0.0
 11
491.744735
 21
406.760363
 31
0.0
  0
LINE
  5
186
330
1F
100
AcDbEntity
  8
1
  6
CONTINUOUS
 62
   155
100
AcDbLine
 10
602.548325
 20
406.820171
 30
0.0
 11
601.880376
 21
406.43453
 31
0.0
  0
LINE
  5
187
330
1F
100
AcDbEntity
  8
1
  6
CONTINUOUS
 62
   155
100
AcDbLine
 10
595.444735
 20
397.760363
 30
0.0
 11
403.444735
 21
397.760363
 31
0.0
  0
LINE
  5
188
330
1F
100
AcDbEntity
  8
1
  6
CONTINUOUS
 62
   155
100
AcDbLine
 10
601.630376
 20
406.867543
 30
0.0
 11
602.298325
 21
407.253184
 31
0.0
  0
LINE
  5
189
330
1F
100
AcDbEntity
  8
1
  6
CONTINUOUS
 62
   155
100
AcDbLine
 10
492.626957
 20
406.760363
 30
0.0
 11
573.894735
 21
406.760363
 31
0.0
  0
LINE
  5
18A
330
1F
100
AcDbEntity
  8
1
  6
CONTINUOUS
 62
   155
100
AcDbLine
 10
501.11794
 20
402.260363
 30
0.0
 11
500.944735
 21
402.560363
 31
0.0
  0
LINE
  5
18B
330
1F
100
AcDbEntity
  8
1
  6
CONTINUOUS
 62
   155
100
AcDbLine
 10
573.194735
 20
406.060363
 30
0.0
 11
494.294735
 21
406.060363
 31
0.0
  0
LINE
  5
18C
330
1F
100
AcDbEntity
  8
1
  6
CONTINUOUS
 62
   155
100
AcDbLine
 10
494.294735
 20
405.260363
 30
0.0
 11
573.194735
 21
405.260363
 31
0.0
  0
LINE
  5
18D
330
1F
100
AcDbEntity
  8
1
  6
CONTINUOUS
 62
   155
100
AcDbLine
 10
573.894735
 20
404.560363
 30
0.0
 11
492.626957
 21
404.560363
 31
0.0
  0
LINE
  5
18E
330
1F
100
AcDbEntity
  8
1
  6
CONTINUOUS
 62
   155
100
AcDbLine
 10
395.444735
 20
406.460363
 30
0.0
 11
394.944735
 21
406.460363
 31
0.0
  0
LINE
  5
18F
330
1F
100
AcDbEntity
  8
1
  6
CONTINUOUS
 62
   155
100
AcDbLine
 10
603.944735
 20
406.860363
 30
0.0
 11
602.698325
 21
406.860363
 31
0.0
  0
LINE
  5
190
330
1F
100
AcDbEntity
  8
1
  6
CONTINUOUS
 62
   155
100
AcDbLine
 10
573.894735
 20
406.760363
 30
0.0
 11
576.244735
 21
406.760363
 31
0.0
  0
LINE
  5
191
330
1F
100
AcDbEntity
  8
1
  6
CONTINUOUS
 62
   155
100
AcDbLine
 10
397.009095
 20
406.43453
 30
0.0
 11
396.341145
 21
406.820171
 31
0.0
  0
LINE
  5
192
330
1F
100
AcDbEntity
  8
1
  6
CONTINUOUS
 62
   155
100
AcDbLine
 10
393.444735
 20
406.460363
 30
0.0
 11
393.444735
 21
406.860363
 31
0.0
  0
LINE
  5
193
330
1F
100
AcDbEntity
  8
1
  6
CONTINUOUS
 62
   155
100
AcDbLine
 10
497.744735
 20
402.360368
 30
0.0
 11
497.744735
 21
402.26039
 31
0.0
  0
LINE
  5
194
330
1F
100
AcDbEntity
  8
1
  6
CONTINUOUS
 62
   155
100
AcDbLine
 10
573.894735
 20
404.560363
 30
0.0
 11
576.244735
 21
404.560363
 31
0.0
  0
LINE
  5
195
330
1F
100
AcDbEntity
  8
1
  6
CONTINUOUS
 62
   155
100
AcDbLine
 10
576.244735
 20
406.760363
 30
0.0
 11
576.244735
 21
404.560363
 31
0.0
  0
LINE
  5
196
330
1F
100
AcDbEntity
  8
1
  6
CONTINUOUS
 62
   155
100
AcDbLine
 10
573.194735
 20
406.060363
 30
0.0
 11
573.194735
 21
405.260363
 31
0.0
  0
LINE
  5
197
330
1F
100
AcDbEntity
  8
1
  6
CONTINUOUS
 62
   155
100
AcDbLine
 10
570.744735
 20
402.26039
 30
0.0
 11
570.744735
 21
402.360368
 31
0.0
  0
LINE
  5
198
330
1F
100
AcDbEntity
  8
1
  6
CONTINUOUS
 62
   155
100
AcDbLine
 10
573.894735
 20
402.360363
 30
0.0
 11
576.244735
 21
402.360363
 31
0.0
  0
LINE
  5
199
330
1F
100
AcDbEntity
  8
1
  6
CONTINUOUS
 62
   155
100
AcDbLine
 10
394.944735
 20
407.360363
 30
0.0
 11
396.191145
 21
407.360363
 31
0.0
  0
LINE
  5
19A
330
1F
100
AcDbEntity
  8
1
  6
CONTINUOUS
 62
   155
100
AcDbLine
 10
603.944735
 20
406.460363
 30
0.0
 11
603.944735
 21
406.860363
 31
0.0
  0
LINE
  5
19B
330
1F
100
AcDbEntity
  8
1
  6
CONTINUOUS
 62
   155
100
AcDbLine
 10
576.744735
 20
402.260363
 30
0.0
 11
576.744735
 21
406.760363
 31
0.0
  0
LINE
  5
19C
330
1F
100
AcDbEntity
  8
1
  6
CONTINUOUS
 62
   155
100
AcDbLine
 10
567.37153
 20
402.260363
 30
0.0
 11
567.544735
 21
402.560363
 31
0.0
  0
LINE
  5
19D
330
1F
100
AcDbEntity
  8
1
  6
CONTINUOUS
 62
   155
100
AcDbLine
 10
396.591145
 20
407.253184
 30
0.0
 11
397.259095
 21
406.867543
 31
0.0
  0
LINE
  5
19E
330
1F
100
AcDbEntity
  8
1
  6
CONTINUOUS
 62
   155
100
AcDbLine
 10
564.344735
 20
402.360368
 30
0.0
 11
564.344735
 21
402.26039
 31
0.0
  0
LINE
  5
19F
330
1F
100
AcDbEntity
  8
1
  6
CONTINUOUS
 62
   155
100
AcDbLine
 10
492.626957
 20
404.560363
 30
0.0
 11
573.894735
 21
404.560363
 31
0.0
  0
LINE
  5
1A0
330
1F
100
AcDbEntity
  8
1
  6
CONTINUOUS
 62
   155
100
AcDbLine
 10
603.944735
 20
406.460363
 30
0.0
 11
603.444735
 21
406.460363
 31
0.0
  0
LINE
  5
1A1
330
1F
100
AcDbEntity
  8
1
  6
CONTINUOUS
 62
   155
100
AcDbLine
 10
493.356507
 20
406.597724
 30
0.0
 11
493.356507
 21
404.723003
 31
0.0
  0
LINE
  5
1A2
330
1F
100
AcDbEntity
  8
1
  6
CONTINUOUS
 62
   155
100
AcDbLine
 10
492.244735
 20
402.360363
 30
0.0
 11
492.244735
 21
404.560363
 31
0.0
  0
LINE
  5
1A3
330
1F
100
AcDbEntity
  8
1
  6
CONTINUOUS
 62
   155
100
AcDbLine
 10
577.244735
 20
406.260363
 30
0.0
 11
577.244735
 21
402.260363
 31
0.0
  0
LINE
  5
1A4
330
1F
100
AcDbEntity
  8
1
  6
CONTINUOUS
 62
   155
100
AcDbLine
 10
394.944735
 20
406.860363
 30
0.0
 11
394.944735
 21
406.460363
 31
0.0
  0
LINE
  5
1A5
330
1F
100
AcDbEntity
  8
1
  6
CONTINUOUS
 62
   155
100
AcDbLine
 10
494.294735
 20
403.060363
 30
0.0
 11
573.194735
 21
403.060363
 31
0.0
  0
LINE
  5
1A6
330
1F
100
AcDbEntity
  8
1
  6
CONTINUOUS
 62
   155
100
AcDbLine
 10
573.194735
 20
403.860363
 30
0.0
 11
573.194735
 21
403.060363
 31
0.0
  0
LINE
  5
1A7
330
1F
100
AcDbEntity
  8
1
  6
CONTINUOUS
 62
   155
100
AcDbLine
 10
494.294735
 20
403.860363
 30
0.0
 11
494.294735
 21
403.060363
 31
0.0
  0
LINE
  5
1A8
330
1F
100
AcDbEntity
  8
1
  6
CONTINUOUS
 62
   155
100
AcDbLine
 10
493.356507
 20
404.397724
 30
0.0
 11
493.356507
 21
402.523003
 31
0.0
  0
LINE
  5
1A9
330
1F
100
AcDbEntity
  8
1
  6
CONTINUOUS
 62
   155
100
AcDbLine
 10
396.191145
 20
406.860363
 30
0.0
 11
394.944735
 21
406.860363
 31
0.0
  0
LINE
  5
1AA
330
1F
100
AcDbEntity
  8
1
  6
CONTINUOUS
 62
   155
100
AcDbLine
 10
576.244735
 20
404.560363
 30
0.0
 11
576.244735
 21
402.360363
 31
0.0
  0
LINE
  5
1AB
330
1F
100
AcDbEntity
  8
1
  6
CONTINUOUS
 62
   155
100
AcDbLine
 10
603.944735
 20
407.360363
 30
0.0
 11
604.944735
 21
407.360363
 31
0.0
  0
LINE
  5
1AC
330
1F
100
AcDbEntity
  8
1
  6
CONTINUOUS
 62
   155
100
AcDbLine
 10
394.944735
 20
406.460363
 30
0.0
 11
393.444735
 21
406.460363
 31
0.0
  0
LINE
  5
1AD
330
1F
100
AcDbEntity
  8
1
  6
CONTINUOUS
 62
   155
100
AcDbLine
 10
393.944735
 20
407.360363
 30
0.0
 11
394.944735
 21
407.360363
 31
0.0
  0
LINE
  5
1AE
330
1F
100
AcDbEntity
  8
1
  6
CONTINUOUS
 62
   155
100
AcDbLine
 10
603.944735
 20
406.860363
 30
0.0
 11
603.944735
 21
407.360363
 31
0.0
  0
LINE
  5
1AF
330
1F
100
AcDbEntity
  8
1
  6
CONTINUOUS
 62
   155
100
AcDbLine
 10
602.698325
 20
406.860363
 30
0.0
 11
602.698325
 21
407.360363
 31
0.0
  0
LINE
  5
1B0
330
1F
100
AcDbEntity
  8
1
  6
CONTINUOUS
 62
   155
100
AcDbLine
 10
492.244735
 20
404.560363
 30
0.0
 11
492.626957
 21
404.560363
 31
0.0
  0
LINE
  5
1B1
330
1F
100
AcDbEntity
  8
1
  6
CONTINUOUS
 62
   155
100
AcDbLine
 10
601.630376
 20
406.867543
 30
0.0
 11
601.880376
 21
406.43453
 31
0.0
  0
LINE
  5
1B2
330
1F
100
AcDbEntity
  8
1
  6
CONTINUOUS
 62
   155
100
AcDbLine
 10
492.244735
 20
402.360363
 30
0.0
 11
492.626957
 21
402.360363
 31
0.0
  0
LINE
  5
1B3
330
1F
100
AcDbEntity
  8
1
  6
CONTINUOUS
 62
   155
100
AcDbLine
 10
605.444735
 20
406.860363
 30
0.0
 11
603.944735
 21
406.860363
 31
0.0
  0
LINE
  5
1B4
330
1F
100
AcDbEntity
  8
1
  6
CONTINUOUS
 62
   155
100
AcDbLine
 10
492.626957
 20
404.560363
 30
0.0
 11
492.244735
 21
404.560363
 31
0.0
  0
LINE
  5
1B5
330
1F
100
AcDbEntity
  8
1
  6
CONTINUOUS
 62
   155
100
AcDbLine
 10
492.244735
 20
406.760363
 30
0.0
 11
492.626957
 21
406.760363
 31
0.0
  0
LINE
  5
1B6
330
1F
100
AcDbEntity
  8
1
  6
CONTINUOUS
 62
   155
100
AcDbLine
 10
396.191145
 20
407.360363
 30
0.0
 11
396.191145
 21
406.860363
 31
0.0
  0
LINE
  5
1B7
330
1F
100
AcDbEntity
  8
1
  6
CONTINUOUS
 62
   155
100
AcDbLine
 10
602.298325
 20
407.253184
 30
0.0
 11
602.548325
 21
406.820171
 31
0.0
  0
LINE
  5
1B8
330
1F
100
AcDbEntity
  8
1
  6
CONTINUOUS
 62
   155
100
AcDbLine
 10
397.659095
 20
406.760363
 30
0.0
 11
397.659095
 21
406.260363
 31
0.0
  0
LINE
  5
1B9
330
1F
100
AcDbEntity
  8
1
  6
CONTINUOUS
 62
   155
100
AcDbLine
 10
397.259095
 20
406.867543
 30
0.0
 11
397.009095
 21
406.43453
 31
0.0
  0
LINE
  5
1BA
330
1F
100
AcDbEntity
  8
1
  6
CONTINUOUS
 62
   155
100
AcDbLine
 10
396.591145
 20
407.253184
 30
0.0
 11
396.341145
 21
406.820171
 31
0.0
  0
LINE
  5
1BB
330
1F
100
AcDbEntity
  8
1
  6
CONTINUOUS
 62
   155
100
AcDbLine
 10
605.444735
 20
406.460363
 30
0.0
 11
603.944735
 21
406.460363
 31
0.0
  0
LINE
  5
1BC
330
1F
100
AcDbEntity
  8
1
  6
CONTINUOUS
 62
   155
100
AcDbLine
 10
394.944735
 20
407.360363
 30
0.0
 11
394.944735
 21
406.860363
 31
0.0
  0
LINE
  5
1BD
330
1F
100
AcDbEntity
  8
1
  6
CONTINUOUS
 62
   155
100
AcDbLine
 10
601.230376
 20
406.260363
 30
0.0
 11
601.230376
 21
406.760363
 31
0.0
  0
LINE
  5
1BE
330
1F
100
AcDbEntity
  8
1
  6
CONTINUOUS
 62
   155
100
AcDbLine
 10
394.944735
 20
406.860363
 30
0.0
 11
393.444735
 21
406.860363
 31
0.0
  0
LINE
  5
1BF
330
1F
100
AcDbEntity
  8
1
  6
CONTINUOUS
 62
   155
100
AcDbLine
 10
577.244735
 20
406.260363
 30
0.0
 11
576.744735
 21
406.760363
 31
0.0
  0
LINE
  5
1C0
330
1F
100
AcDbEntity
  8
1
  6
CONTINUOUS
 62
   155
100
AcDbLine
 10
491.744735
 20
406.760363
 30
0.0
 11
491.244735
 21
406.260363
 31
0.0
  0
LINE
  5
1C1
330
1F
100
AcDbEntity
  8
1
  6
CONTINUOUS
 62
   155
100
AcDbLine
 10
574.194735
 20
292.855885
 30
0.0
 11
574.194735
 21
293.655885
 31
0.0
  0
LINE
  5
1C2
330
1F
100
AcDbEntity
  8
1
  6
CONTINUOUS
 62
   155
100
AcDbLine
 10
564.344735
 20
296.655858
 30
0.0
 11
564.344735
 21
296.55588
 31
0.0
  0
LINE
  5
1C3
330
1F
100
AcDbEntity
  8
1
  6
CONTINUOUS
 62
   155
100
AcDbLine
 10
577.244735
 20
292.655885
 30
0.0
 11
601.230376
 21
292.655885
 31
0.0
  0
LINE
  5
1C4
330
1F
100
AcDbEntity
  8
1
  6
CONTINUOUS
 62
   155
100
AcDbLine
 10
504.144735
 20
296.55588
 30
0.0
 11
504.144735
 21
296.655858
 31
0.0
  0
LINE
  5
1C5
330
1F
100
AcDbEntity
  8
1
  6
CONTINUOUS
 62
   155
100
AcDbLine
 10
492.626957
 20
296.555885
 30
0.0
 11
500.829561
 21
296.555885
 31
0.0
  0
LINE
  5
1C6
330
1F
100
AcDbEntity
  8
1
  6
CONTINUOUS
 62
   155
100
AcDbLine
 10
501.06106
 20
296.555885
 30
0.0
 11
567.42841
 21
296.555885
 31
0.0
  0
LINE
  5
1C7
330
1F
100
AcDbEntity
  8
1
  6
CONTINUOUS
 62
   155
100
AcDbLine
 10
567.659909
 20
296.555885
 30
0.0
 11
575.862513
 21
296.555885
 31
0.0
  0
LINE
  5
1C8
330
1F
100
AcDbEntity
  8
1
  6
CONTINUOUS
 62
   155
100
AcDbLine
 10
492.244735
 20
294.355885
 30
0.0
 11
492.244735
 21
296.555885
 31
0.0
  0
LINE
  5
1C9
330
1F
100
AcDbEntity
  8
1
  6
CONTINUOUS
 62
   155
100
AcDbLine
 10
601.880376
 20
292.481718
 30
0.0
 11
602.548325
 21
292.096077
 31
0.0
  0
LINE
  5
1CA
330
1F
100
AcDbEntity
  8
1
  6
CONTINUOUS
 62
   155
100
AcDbLine
 10
575.862513
 20
294.355885
 30
0.0
 11
492.626957
 21
294.355885
 31
0.0
  0
LINE
  5
1CB
330
1F
100
AcDbEntity
  8
1
  6
CONTINUOUS
 62
   155
100
AcDbLine
 10
575.862513
 20
292.155885
 30
0.0
 11
492.626957
 21
292.155885
 31
0.0
  0
LINE
  5
1CC
330
1F
100
AcDbEntity
  8
1
  6
CONTINUOUS
 62
   155
100
AcDbLine
 10
602.298325
 20
291.663065
 30
0.0
 11
601.630376
 21
292.048705
 31
0.0
  0
LINE
  5
1CD
330
1F
100
AcDbEntity
  8
1
  6
CONTINUOUS
 62
   155
100
AcDbLine
 10
494.294735
 20
292.855885
 30
0.0
 11
494.294735
 21
293.655885
 31
0.0
  0
LINE
  5
1CE
330
1F
100
AcDbEntity
  8
1
  6
CONTINUOUS
 62
   155
100
AcDbLine
 10
494.294735
 20
292.855885
 30
0.0
 11
574.194735
 21
292.855885
 31
0.0
  0
LINE
  5
1CF
330
1F
100
AcDbEntity
  8
1
  6
CONTINUOUS
 62
   155
100
AcDbLine
 10
605.444735
 20
292.455885
 30
0.0
 11
605.444735
 21
292.055885
 31
0.0
  0
LINE
  5
1D0
330
1F
100
AcDbEntity
  8
1
  6
CONTINUOUS
 62
   155
100
AcDbLine
 10
397.259095
 20
292.048705
 30
0.0
 11
396.591145
 21
291.663065
 31
0.0
  0
LINE
  5
1D1
330
1F
100
AcDbEntity
  8
1
  6
CONTINUOUS
 62
   155
100
AcDbLine
 10
492.626957
 20
294.355885
 30
0.0
 11
575.862513
 21
294.355885
 31
0.0
  0
LINE
  5
1D2
330
1F
100
AcDbEntity
  8
1
  6
CONTINUOUS
 62
   155
100
AcDbLine
 10
492.244735
 20
292.155885
 30
0.0
 11
492.244735
 21
294.355885
 31
0.0
  0
LINE
  5
1D3
330
1F
100
AcDbEntity
  8
1
  6
CONTINUOUS
 62
   155
100
AcDbLine
 10
575.132964
 20
292.318525
 30
0.0
 11
575.132964
 21
294.193245
 31
0.0
  0
LINE
  5
1D4
330
1F
100
AcDbEntity
  8
1
  6
CONTINUOUS
 62
   155
100
AcDbLine
 10
570.744735
 20
296.55588
 30
0.0
 11
570.744735
 21
296.655858
 31
0.0
  0
LINE
  5
1D5
330
1F
100
AcDbEntity
  8
1
  6
CONTINUOUS
 62
   155
100
AcDbLine
 10
493.356507
 20
296.393245
 30
0.0
 11
493.356507
 21
294.518525
 31
0.0
  0
LINE
  5
1D6
330
1F
100
AcDbEntity
  8
1
  6
CONTINUOUS
 62
   155
100
AcDbLine
 10
491.744735
 20
296.655885
 30
0.0
 11
491.744735
 21
292.155885
 31
0.0
  0
LINE
  5
1D7
330
1F
100
AcDbEntity
  8
1
  6
CONTINUOUS
 62
   155
100
AcDbLine
 10
494.294735
 20
295.055885
 30
0.0
 11
494.294735
 21
295.855885
 31
0.0
  0
LINE
  5
1D8
330
1F
100
AcDbEntity
  8
1
  6
CONTINUOUS
 62
   155
100
AcDbLine
 10
393.444735
 20
292.055885
 30
0.0
 11
393.444735
 21
292.455885
 31
0.0
  0
LINE
  5
1D9
330
1F
100
AcDbEntity
  8
1
  6
CONTINUOUS
 62
   155
100
AcDbLine
 10
567.37153
 20
296.655885
 30
0.0
 11
567.544735
 21
296.355885
 31
0.0
  0
LINE
  5
1DA
330
1F
100
AcDbEntity
  8
1
  6
CONTINUOUS
 62
   155
100
AcDbLine
 10
576.244735
 20
294.355885
 30
0.0
 11
576.244735
 21
292.155885
 31
0.0
  0
LINE
  5
1DB
330
1F
100
AcDbEntity
  8
1
  6
CONTINUOUS
 62
   155
100
AcDbLine
 10
574.194735
 20
295.855885
 30
0.0
 11
494.294735
 21
295.855885
 31
0.0
  0
LINE
  5
1DC
330
1F
100
AcDbEntity
  8
1
  6
CONTINUOUS
 62
   155
100
AcDbLine
 10
603.944735
 20
292.455885
 30
0.0
 11
603.444735
 21
292.455885
 31
0.0
  0
LINE
  5
1DD
330
1F
100
AcDbEntity
  8
1
  6
CONTINUOUS
 62
   155
100
AcDbLine
 10
603.944735
 20
292.055885
 30
0.0
 11
603.944735
 21
292.455885
 31
0.0
  0
LINE
  5
1DE
330
1F
100
AcDbEntity
  8
1
  6
CONTINUOUS
 62
   155
100
AcDbLine
 10
500.944735
 20
296.355885
 30
0.0
 11
500.77153
 21
296.655885
 31
0.0
  0
LINE
  5
1DF
330
1F
100
AcDbEntity
  8
1
  6
CONTINUOUS
 62
   155
100
AcDbLine
 10
576.744735
 20
292.155885
 30
0.0
 11
576.744735
 21
296.655885
 31
0.0
  0
LINE
  5
1E0
330
1F
100
AcDbEntity
  8
1
  6
CONTINUOUS
 62
   155
100
AcDbLine
 10
501.11794
 20
296.655885
 30
0.0
 11
567.37153
 21
296.655885
 31
0.0
  0
LINE
  5
1E1
330
1F
100
AcDbEntity
  8
1
  6
CONTINUOUS
 62
   155
100
AcDbLine
 10
497.744735
 20
296.655858
 30
0.0
 11
497.744735
 21
296.55588
 31
0.0
  0
LINE
  5
1E2
330
1F
100
AcDbEntity
  8
1
  6
CONTINUOUS
 62
   155
100
AcDbLine
 10
501.11794
 20
296.655885
 30
0.0
 11
500.944735
 21
296.355885
 31
0.0
  0
LINE
  5
1E3
330
1F
100
AcDbEntity
  8
1
  6
CONTINUOUS
 62
   155
100
AcDbLine
 10
491.744735
 20
292.155885
 30
0.0
 11
397.659095
 21
292.155885
 31
0.0
  0
LINE
  5
1E4
330
1F
100
AcDbEntity
  8
1
  6
CONTINUOUS
 62
   155
100
AcDbLine
 10
601.230376
 20
292.155885
 30
0.0
 11
576.744735
 21
292.155885
 31
0.0
  0
LINE
  5
1E5
330
1F
100
AcDbEntity
  8
1
  6
CONTINUOUS
 62
   155
100
AcDbLine
 10
396.191145
 20
291.555885
 30
0.0
 11
394.944735
 21
291.555885
 31
0.0
  0
LINE
  5
1E6
330
1F
100
AcDbEntity
  8
1
  6
CONTINUOUS
 62
   155
100
AcDbLine
 10
567.71794
 20
296.655885
 30
0.0
 11
577.244735
 21
296.655885
 31
0.0
  0
LINE
  5
1E7
330
1F
100
AcDbEntity
  8
1
  6
CONTINUOUS
 62
   155
100
AcDbLine
 10
491.244735
 20
296.655885
 30
0.0
 11
500.77153
 21
296.655885
 31
0.0
  0
LINE
  5
1E8
330
1F
100
AcDbEntity
  8
1
  6
CONTINUOUS
 62
   155
100
AcDbLine
 10
567.544735
 20
296.355885
 30
0.0
 11
567.71794
 21
296.655885
 31
0.0
  0
LINE
  5
1E9
330
1F
100
AcDbEntity
  8
1
  6
CONTINUOUS
 62
   155
100
AcDbLine
 10
577.244735
 20
296.655885
 30
0.0
 11
577.244735
 21
292.655885
 31
0.0
  0
LINE
  5
1EA
330
1F
100
AcDbEntity
  8
1
  6
CONTINUOUS
 62
   155
100
AcDbLine
 10
574.194735
 20
295.055885
 30
0.0
 11
574.194735
 21
295.855885
 31
0.0
  0
LINE
  5
1EB
330
1F
100
AcDbEntity
  8
1
  6
CONTINUOUS
 62
   155
100
AcDbLine
 10
603.444735
 20
292.455885
 30
0.0
 11
603.444735
 21
293.155885
 31
0.0
  0
LINE
  5
1EC
330
1F
100
AcDbEntity
  8
1
  6
CONTINUOUS
 62
   155
100
AcDbLine
 10
575.132964
 20
294.518525
 30
0.0
 11
575.132964
 21
296.393245
 31
0.0
  0
LINE
  5
1ED
330
1F
100
AcDbEntity
  8
1
  6
CONTINUOUS
 62
   155
100
AcDbLine
 10
595.444735
 20
301.155885
 30
0.0
 11
403.444735
 21
301.155885
 31
0.0
  0
LINE
  5
1EE
330
1F
100
AcDbEntity
  8
1
  6
CONTINUOUS
 62
   155
100
AcDbLine
 10
395.444735
 20
293.155885
 30
0.0
 11
395.444735
 21
292.455885
 31
0.0
  0
LINE
  5
1EF
330
1F
100
AcDbEntity
  8
1
  6
CONTINUOUS
 62
   155
100
AcDbLine
 10
395.444735
 20
292.455885
 30
0.0
 11
394.944735
 21
292.455885
 31
0.0
  0
LINE
  5
1F0
330
1F
100
AcDbEntity
  8
1
  6
CONTINUOUS
 62
   155
100
AcDbLine
 10
602.698325
 20
292.055885
 30
0.0
 11
603.944735
 21
292.055885
 31
0.0
  0
LINE
  5
1F1
330
1F
100
AcDbEntity
  8
1
  6
CONTINUOUS
 62
   155
100
AcDbLine
 10
394.944735
 20
292.455885
 30
0.0
 11
394.944735
 21
292.055885
 31
0.0
  0
LINE
  5
1F2
330
1F
100
AcDbEntity
  8
1
  6
CONTINUOUS
 62
   155
100
AcDbLine
 10
394.944735
 20
292.055885
 30
0.0
 11
396.191145
 21
292.055885
 31
0.0
  0
LINE
  5
1F3
330
1F
100
AcDbEntity
  8
1
  6
CONTINUOUS
 62
   155
100
AcDbLine
 10
396.341145
 20
292.096077
 30
0.0
 11
397.009095
 21
292.481718
 31
0.0
  0
LINE
  5
1F4
330
1F
100
AcDbEntity
  8
1
  6
CONTINUOUS
 62
   155
100
AcDbLine
 10
397.659095
 20
292.655885
 30
0.0
 11
491.244735
 21
292.655885
 31
0.0
  0
LINE
  5
1F5
330
1F
100
AcDbEntity
  8
1
  6
CONTINUOUS
 62
   155
100
AcDbLine
 10
494.294735
 20
295.055885
 30
0.0
 11
574.194735
 21
295.055885
 31
0.0
  0
LINE
  5
1F6
330
1F
100
AcDbEntity
  8
1
  6
CONTINUOUS
 62
   155
100
AcDbLine
 10
576.244735
 20
296.555885
 30
0.0
 11
576.244735
 21
294.355885
 31
0.0
  0
LINE
  5
1F7
330
1F
100
AcDbEntity
  8
1
  6
CONTINUOUS
 62
   155
100
AcDbLine
 10
603.944735
 20
291.555885
 30
0.0
 11
602.698325
 21
291.555885
 31
0.0
  0
LINE
  5
1F8
330
1F
100
AcDbEntity
  8
1
  6
CONTINUOUS
 62
   155
100
AcDbLine
 10
574.194735
 20
293.655885
 30
0.0
 11
494.294735
 21
293.655885
 31
0.0
  0
LINE
  5
1F9
330
1F
100
AcDbEntity
  8
1
  6
CONTINUOUS
 62
   155
100
AcDbLine
 10
493.356507
 20
294.193245
 30
0.0
 11
493.356507
 21
292.318525
 31
0.0
  0
LINE
  5
1FA
330
1F
100
AcDbEntity
  8
1
  6
CONTINUOUS
 62
   155
100
AcDbLine
 10
491.244735
 20
292.655885
 30
0.0
 11
491.244735
 21
296.655885
 31
0.0
  0
LINE
  5
1FB
330
1F
100
AcDbEntity
  8
1
  6
CONTINUOUS
 62
   155
100
AcDbLine
 10
603.944735
 20
292.455885
 30
0.0
 11
605.444735
 21
292.455885
 31
0.0
  0
LINE
  5
1FC
330
1F
100
AcDbEntity
  8
1
  6
CONTINUOUS
 62
   155
100
AcDbLine
 10
396.591145
 20
291.663065
 30
0.0
 11
396.341145
 21
292.096077
 31
0.0
  0
LINE
  5
1FD
330
1F
100
AcDbEntity
  8
1
  6
CONTINUOUS
 62
   155
100
AcDbLine
 10
393.444735
 20
292.055885
 30
0.0
 11
394.944735
 21
292.055885
 31
0.0
  0
LINE
  5
1FE
330
1F
100
AcDbEntity
  8
1
  6
CONTINUOUS
 62
   155
100
AcDbLine
 10
576.244735
 20
292.155885
 30
0.0
 11
575.862513
 21
292.155885
 31
0.0
  0
LINE
  5
1FF
330
1F
100
AcDbEntity
  8
1
  6
CONTINUOUS
 62
   155
100
AcDbLine
 10
601.880376
 20
292.481718
 30
0.0
 11
601.630376
 21
292.048705
 31
0.0
  0
LINE
  5
200
330
1F
100
AcDbEntity
  8
1
  6
CONTINUOUS
 62
   155
100
AcDbLine
 10
492.626957
 20
292.155885
 30
0.0
 11
492.244735
 21
292.155885
 31
0.0
  0
LINE
  5
201
330
1F
100
AcDbEntity
  8
1
  6
CONTINUOUS
 62
   155
100
AcDbLine
 10
492.244735
 20
294.355885
 30
0.0
 11
492.626957
 21
294.355885
 31
0.0
  0
LINE
  5
202
330
1F
100
AcDbEntity
  8
1
  6
CONTINUOUS
 62
   155
100
AcDbLine
 10
576.244735
 20
294.355885
 30
0.0
 11
575.862513
 21
294.355885
 31
0.0
  0
LINE
  5
203
330
1F
100
AcDbEntity
  8
1
  6
CONTINUOUS
 62
   155
100
AcDbLine
 10
397.659095
 20
292.155885
 30
0.0
 11
397.659095
 21
292.655885
 31
0.0
  0
LINE
  5
204
330
1F
100
AcDbEntity
  8
1
  6
CONTINUOUS
 62
   155
100
AcDbLine
 10
393.444735
 20
292.455885
 30
0.0
 11
394.944735
 21
292.455885
 31
0.0
  0
LINE
  5
205
330
1F
100
AcDbEntity
  8
1
  6
CONTINUOUS
 62
   155
100
AcDbLine
 10
397.259095
 20
292.048705
 30
0.0
 11
397.009095
 21
292.481718
 31
0.0
  0
LINE
  5
206
330
1F
100
AcDbEntity
  8
1
  6
CONTINUOUS
 62
   155
100
AcDbLine
 10
602.698325
 20
292.055885
 30
0.0
 11
602.698325
 21
291.555885
 31
0.0
  0
LINE
  5
207
330
1F
100
AcDbEntity
  8
1
  6
CONTINUOUS
 62
   155
100
AcDbLine
 10
394.944735
 20
291.555885
 30
0.0
 11
394.944735
 21
292.055885
 31
0.0
  0
LINE
  5
208
330
1F
100
AcDbEntity
  8
1
  6
CONTINUOUS
 62
   155
100
AcDbLine
 10
396.191145
 20
291.555885
 30
0.0
 11
396.191145
 21
292.055885
 31
0.0
  0
LINE
  5
209
330
1F
100
AcDbEntity
  8
1
  6
CONTINUOUS
 62
   155
100
AcDbLine
 10
604.944735
 20
291.555885
 30
0.0
 11
603.944735
 21
291.555885
 31
0.0
  0
LINE
  5
20A
330
1F
100
AcDbEntity
  8
1
  6
CONTINUOUS
 62
   155
100
AcDbLine
 10
601.230376
 20
292.655885
 30
0.0
 11
601.230376
 21
292.155885
 31
0.0
  0
LINE
  5
20B
330
1F
100
AcDbEntity
  8
1
  6
CONTINUOUS
 62
   155
100
AcDbLine
 10
603.944735
 20
292.055885
 30
0.0
 11
605.444735
 21
292.055885
 31
0.0
  0
LINE
  5
20C
330
1F
100
AcDbEntity
  8
1
  6
CONTINUOUS
 62
   155
100
AcDbLine
 10
603.944735
 20
292.055885
 30
0.0
 11
603.944735
 21
291.555885
 31
0.0
  0
LINE
  5
20D
330
1F
100
AcDbEntity
  8
1
  6
CONTINUOUS
 62
   155
100
AcDbLine
 10
602.548325
 20
292.096077
 30
0.0
 11
602.298325
 21
291.663065
 31
0.0
  0
LINE
  5
20E
330
1F
100
AcDbEntity
  8
1
  6
CONTINUOUS
 62
   155
100
AcDbLine
 10
576.244735
 20
294.355885
 30
0.0
 11
575.862513
 21
294.355885
 31
0.0
  0
LINE
  5
20F
330
1F
100
AcDbEntity
  8
1
  6
CONTINUOUS
 62
   155
100
AcDbLine
 10
394.944735
 20
291.555885
 30
0.0
 11
393.944735
 21
291.555885
 31
0.0
  0
LINE
  5
210
330
1F
100
AcDbEntity
  8
1
  6
CONTINUOUS
 62
   155
100
AcDbLine
 10
575.862513
 20
296.555885
 30
0.0
 11
576.244735
 21
296.555885
 31
0.0
  0
LINE
  5
211
330
1F
100
AcDbEntity
  8
1
  6
CONTINUOUS
 62
   155
100
AcDbLine
 10
492.244735
 20
294.355885
 30
0.0
 11
492.626957
 21
294.355885
 31
0.0
  0
LINE
  5
212
330
1F
100
AcDbEntity
  8
1
  6
CONTINUOUS
 62
   155
100
AcDbLine
 10
492.244735
 20
296.555885
 30
0.0
 11
492.626957
 21
296.555885
 31
0.0
  0
LINE
  5
213
330
1F
100
AcDbEntity
  8
1
  6
CONTINUOUS
 62
   155
100
AcDbLine
 10
491.744735
 20
292.155885
 30
0.0
 11
491.244735
 21
292.655885
 31
0.0
  0
LINE
  5
214
330
1F
100
AcDbEntity
  8
1
  6
CONTINUOUS
 62
   155
100
AcDbLine
 10
577.244735
 20
292.655885
 30
0.0
 11
576.744735
 21
292.155885
 31
0.0
  0
LINE
  5
215
330
1F
100
AcDbEntity
  8
1
  6
CONTINUOUS
 62
   155
100
AcDbLine
 10
363.099226
 20
360.132297
 30
0.0
 11
363.499226
 21
360.132297
 31
0.0
  0
LINE
  5
216
330
1F
100
AcDbEntity
  8
1
  6
CONTINUOUS
 62
   155
100
AcDbLine
 10
372.199226
 20
357.632219
 30
0.0
 11
372.199226
 21
344.632375
 31
0.0
  0
LINE
  5
217
330
1F
100
AcDbEntity
  8
1
  6
CONTINUOUS
 62
   155
100
AcDbLine
 10
363.499226
 20
360.132297
 30
0.0
 11
364.199226
 21
360.132297
 31
0.0
  0
LINE
  5
218
330
1F
100
AcDbEntity
  8
1
  6
CONTINUOUS
 62
   155
100
AcDbLine
 10
371.199226
 20
344.632297
 30
0.0
 11
372.199226
 21
344.632297
 31
0.0
  0
LINE
  5
219
330
1F
100
AcDbEntity
  8
1
  6
CONTINUOUS
 62
   155
100
AcDbLine
 10
363.099226
 20
358.632297
 30
0.0
 11
363.099226
 21
343.632297
 31
0.0
  0
LINE
  5
21A
330
1F
100
AcDbEntity
  8
1
  6
CONTINUOUS
 62
   155
100
AcDbLine
 10
363.499226
 20
358.632297
 30
0.0
 11
363.499226
 21
343.632297
 31
0.0
  0
LINE
  5
21B
330
1F
100
AcDbEntity
  8
1
  6
CONTINUOUS
 62
   155
100
AcDbLine
 10
371.199226
 20
344.632297
 30
0.0
 11
371.199226
 21
347.632289
 31
0.0
  0
LINE
  5
21C
330
1F
100
AcDbEntity
  8
1
  6
CONTINUOUS
 62
   155
100
AcDbLine
 10
366.499257
 20
344.632297
 30
0.0
 11
371.199226
 21
344.632297
 31
0.0
  0
LINE
  5
21D
330
1F
100
AcDbEntity
  8
1
  6
CONTINUOUS
 62
   155
100
AcDbLine
 10
371.199226
 20
354.632297
 30
0.0
 11
365.199226
 21
354.632297
 31
0.0
  0
LINE
  5
21E
330
1F
100
AcDbEntity
  8
1
  6
CONTINUOUS
 62
   155
100
AcDbLine
 10
364.199226
 20
360.132297
 30
0.0
 11
364.199226
 21
355.132297
 31
0.0
  0
LINE
  5
21F
330
1F
100
AcDbEntity
  8
1
  6
CONTINUOUS
 62
   155
100
AcDbLine
 10
364.199226
 20
347.132297
 30
0.0
 11
364.199226
 21
342.132297
 31
0.0
  0
LINE
  5
220
330
1F
100
AcDbEntity
  8
1
  6
CONTINUOUS
 62
   155
100
AcDbLine
 10
363.499226
 20
342.132297
 30
0.0
 11
363.099226
 21
342.132297
 31
0.0
  0
LINE
  5
221
330
1F
100
AcDbEntity
  8
1
  6
CONTINUOUS
 62
   155
100
AcDbLine
 10
372.199226
 20
360.132297
 30
0.0
 11
372.199226
 21
358.132297
 31
0.0
  0
LINE
  5
222
330
1F
100
AcDbEntity
  8
1
  6
CONTINUOUS
 62
   155
100
AcDbLine
 10
372.199226
 20
344.132297
 30
0.0
 11
372.199226
 21
342.132297
 31
0.0
  0
LINE
  5
223
330
1F
100
AcDbEntity
  8
1
  6
CONTINUOUS
 62
   155
100
AcDbLine
 10
364.199226
 20
355.132297
 30
0.0
 11
363.499226
 21
355.132297
 31
0.0
  0
LINE
  5
224
330
1F
100
AcDbEntity
  8
1
  6
CONTINUOUS
 62
   155
100
AcDbLine
 10
366.499257
 20
357.632297
 30
0.0
 11
371.199226
 21
357.632297
 31
0.0
  0
LINE
  5
225
330
1F
100
AcDbEntity
  8
1
  6
CONTINUOUS
 62
   155
100
AcDbLine
 10
366.499226
 20
358.132297
 30
0.0
 11
366.499226
 21
355.132297
 31
0.0
  0
LINE
  5
226
330
1F
100
AcDbEntity
  8
1
  6
CONTINUOUS
 62
   155
100
AcDbLine
 10
364.199226
 20
347.132297
 30
0.0
 11
363.499226
 21
347.132297
 31
0.0
  0
LINE
  5
227
330
1F
100
AcDbEntity
  8
1
  6
CONTINUOUS
 62
   155
100
AcDbLine
 10
366.499226
 20
344.132297
 30
0.0
 11
366.499226
 21
347.132297
 31
0.0
  0
LINE
  5
228
330
1F
100
AcDbEntity
  8
1
  6
CONTINUOUS
 62
   155
100
AcDbLine
 10
365.199226
 20
347.132297
 30
0.0
 11
365.199226
 21
355.132297
 31
0.0
  0
LINE
  5
229
330
1F
100
AcDbEntity
  8
1
  6
CONTINUOUS
 62
   155
100
AcDbLine
 10
363.499226
 20
342.132297
 30
0.0
 11
364.199226
 21
342.132297
 31
0.0
  0
LINE
  5
22A
330
1F
100
AcDbEntity
  8
1
  6
CONTINUOUS
 62
   155
100
AcDbLine
 10
371.199226
 20
357.632297
 30
0.0
 11
372.199226
 21
357.632297
 31
0.0
  0
LINE
  5
22B
330
1F
100
AcDbEntity
  8
1
  6
CONTINUOUS
 62
   155
100
AcDbLine
 10
371.199226
 20
354.632305
 30
0.0
 11
371.199226
 21
357.632297
 31
0.0
  0
LINE
  5
22C
330
1F
100
AcDbEntity
  8
1
  6
CONTINUOUS
 62
   155
100
AcDbLine
 10
363.499226
 20
358.632297
 30
0.0
 11
363.099226
 21
358.632297
 31
0.0
  0
LINE
  5
22D
330
1F
100
AcDbEntity
  8
1
  6
CONTINUOUS
 62
   155
100
AcDbLine
 10
362.599226
 20
343.632297
 30
0.0
 11
362.599226
 21
358.632297
 31
0.0
  0
LINE
  5
22E
330
1F
100
AcDbEntity
  8
1
  6
CONTINUOUS
 62
   155
100
AcDbLine
 10
365.199226
 20
347.632297
 30
0.0
 11
371.199226
 21
347.632297
 31
0.0
  0
LINE
  5
22F
330
1F
100
AcDbEntity
  8
1
  6
CONTINUOUS
 62
   155
100
AcDbLine
 10
363.099226
 20
343.632297
 30
0.0
 11
363.499226
 21
343.632297
 31
0.0
  0
LINE
  5
230
330
1F
100
AcDbEntity
  8
1
  6
CONTINUOUS
 62
   155
100
AcDbLine
 10
363.099226
 20
358.632297
 30
0.0
 11
362.599226
 21
358.632297
 31
0.0
  0
LINE
  5
231
330
1F
100
AcDbEntity
  8
1
  6
CONTINUOUS
 62
   155
100
AcDbLine
 10
362.599226
 20
358.632297
 30
0.0
 11
362.599226
 21
359.632297
 31
0.0
  0
LINE
  5
232
330
1F
100
AcDbEntity
  8
1
  6
CONTINUOUS
 62
   155
100
AcDbLine
 10
364.199226
 20
355.132297
 30
0.0
 11
366.499226
 21
355.132297
 31
0.0
  0
LINE
  5
233
330
1F
100
AcDbEntity
  8
1
  6
CONTINUOUS
 62
   155
100
AcDbLine
 10
363.099226
 20
360.132297
 30
0.0
 11
363.099226
 21
358.632297
 31
0.0
  0
LINE
  5
234
330
1F
100
AcDbEntity
  8
1
  6
CONTINUOUS
 62
   155
100
AcDbLine
 10
363.499226
 20
343.632297
 30
0.0
 11
363.499226
 21
342.132297
 31
0.0
  0
LINE
  5
235
330
1F
100
AcDbEntity
  8
1
  6
CONTINUOUS
 62
   155
100
AcDbLine
 10
372.199226
 20
357.632297
 30
0.0
 11
372.199226
 21
358.132297
 31
0.0
  0
LINE
  5
236
330
1F
100
AcDbEntity
  8
1
  6
CONTINUOUS
 62
   155
100
AcDbLine
 10
366.499226
 20
347.132297
 30
0.0
 11
364.199226
 21
347.132297
 31
0.0
  0
LINE
  5
237
330
1F
100
AcDbEntity
  8
1
  6
CONTINUOUS
 62
   155
100
AcDbLine
 10
364.199226
 20
360.132297
 30
0.0
 11
372.199226
 21
360.132297
 31
0.0
  0
LINE
  5
238
330
1F
100
AcDbEntity
  8
1
  6
CONTINUOUS
 62
   155
100
AcDbLine
 10
371.199226
 20
347.632297
 30
0.0
 11
371.199226
 21
354.632297
 31
0.0
  0
LINE
  5
239
330
1F
100
AcDbEntity
  8
1
  6
CONTINUOUS
 62
   155
100
AcDbLine
 10
372.199226
 20
344.132297
 30
0.0
 11
372.199226
 21
344.632297
 31
0.0
  0
LINE
  5
23A
330
1F
100
AcDbEntity
  8
1
  6
CONTINUOUS
 62
   155
100
AcDbLine
 10
363.099226
 20
343.632297
 30
0.0
 11
362.599226
 21
343.632297
 31
0.0
  0
LINE
  5
23B
330
1F
100
AcDbEntity
  8
1
  6
CONTINUOUS
 62
   155
100
AcDbLine
 10
363.099226
 20
342.132297
 30
0.0
 11
363.099226
 21
343.632297
 31
0.0
  0
LINE
  5
23C
330
1F
100
AcDbEntity
  8
1
  6
CONTINUOUS
 62
   155
100
AcDbLine
 10
366.499226
 20
358.132297
 30
0.0
 11
372.199226
 21
358.132297
 31
0.0
  0
LINE
  5
23D
330
1F
100
AcDbEntity
  8
1
  6
CONTINUOUS
 62
   155
100
AcDbLine
 10
372.199226
 20
344.132297
 30
0.0
 11
366.499226
 21
344.132297
 31
0.0
  0
LINE
  5
23E
330
1F
100
AcDbEntity
  8
1
  6
CONTINUOUS
 62
   155
100
AcDbLine
 10
363.499226
 20
360.132297
 30
0.0
 11
363.499226
 21
358.632297
 31
0.0
  0
LINE
  5
23F
330
1F
100
AcDbEntity
  8
1
  6
CONTINUOUS
 62
   155
100
AcDbLine
 10
364.199226
 20
342.132297
 30
0.0
 11
372.199226
 21
342.132297
 31
0.0
  0
LINE
  5
240
330
1F
100
AcDbEntity
  8
1
  6
CONTINUOUS
 62
   155
100
AcDbLine
 10
362.599226
 20
342.632297
 30
0.0
 11
362.599226
 21
343.632297
 31
0.0
  0
CIRCLE
  5
241
330
1F
100
AcDbEntity
  8
1
  6
CONTINUOUS
 62
   155
100
AcDbCircle
 10
-568.544735
 20
351.132297
 30
0.0
 40
4.500000000000001
210
-1.224646799147353E-16
220
0.0
230
-1.0
  0
ARC
  5
242
330
1F
100
AcDbEntity
  8
1
  6
CONTINUOUS
 62
   155
100
AcDbCircle
 10
567.544735
 20
352.332297
 30
0.0
 40
3.349999999999994
100
AcDbArc
 50
78.814696
 51
180.0
  0
ARC
  5
243
330
1F
100
AcDbEntity
  8
1
  6
CONTINUOUS
 62
   155
100
AcDbCircle
 10
-500.944735
 20
349.932297
 30
0.0
 40
3.350000000000009
210
-1.224646799147353E-16
220
0.0
230
-1.0
100
AcDbArc
 50
180.0
 51
281.185304
  0
ARC
  5
244
330
1F
100
AcDbEntity
  8
1
  6
CONTINUOUS
 62
   155
100
AcDbCircle
 10
-500.944735
 20
352.332297
 30
0.0
 40
3.350000000000009
210
-1.224646799147353E-16
220
0.0
230
-1.0
100
AcDbArc
 50
78.814696
 51
180.0
  0
ARC
  5
245
330
1F
100
AcDbEntity
  8
1
  6
CONTINUOUS
 62
   155
100
AcDbCircle
 10
-500.944735
 20
351.132297
 30
0.0
 40
2.0
210
0.0
220
0.0
230
-1.0
100
AcDbArc
 50
120.0
 51
180.0
  0
ARC
  5
246
330
1F
100
AcDbEntity
  8
1
  6
CONTINUOUS
 62
   155
100
AcDbCircle
 10
-500.944735
 20
351.132297
 30
0.0
 40
2.0
210
0.0
220
0.0
230
-1.0
100
AcDbArc
 50
300.0
 51
0.0
  0
ARC
  5
247
330
1F
100
AcDbEntity
  8
1
  6
CONTINUOUS
 62
   155
100
AcDbCircle
 10
-500.944735
 20
351.132297
 30
0.0
 40
2.0
210
0.0
220
0.0
230
-1.0
100
AcDbArc
 50
60.0
 51
120.0
  0
ARC
  5
248
330
1F
100
AcDbEntity
  8
1
  6
CONTINUOUS
 62
   155
100
AcDbCircle
 10
-500.944735
 20
351.132297
 30
0.0
 40
2.0
210
0.0
220
0.0
230
-1.0
100
AcDbArc
 50
0.0
 51
60.0
  0
ARC
  5
249
330
1F
100
AcDbEntity
  8
1
  6
CONTINUOUS
 62
   155
100
AcDbCircle
 10
394.944735
 20
358.632297
 30
0.0
 40
1.0
100
AcDbArc
 50
90.0
 51
180.0
  0
ARC
  5
24A
330
1F
100
AcDbEntity
  8
1
  6
CONTINUOUS
 62
   155
100
AcDbCircle
 10
-567.544735
 20
351.132297
 30
0.0
 40
2.0
210
-1.224646799147353E-16
220
0.0
230
-1.0
100
AcDbArc
 50
180.0
 51
240.0
  0
ARC
  5
24B
330
1F
100
AcDbEntity
  8
1
  6
CONTINUOUS
 62
   155
100
AcDbCircle
 10
-567.544735
 20
351.132297
 30
0.0
 40
2.0
210
-1.224646799147353E-16
220
0.0
230
-1.0
100
AcDbArc
 50
60.0
 51
120.0
  0
ARC
  5
24C
330
1F
100
AcDbEntity
  8
1
  6
CONTINUOUS
 62
   155
100
AcDbCircle
 10
-567.544735
 20
351.132297
 30
0.0
 40
2.0
210
-1.224646799147353E-16
220
0.0
230
-1.0
100
AcDbArc
 50
120.0
 51
180.0
  0
ARC
  5
24D
330
1F
100
AcDbEntity
  8
1
  6
CONTINUOUS
 62
   155
100
AcDbCircle
 10
603.944735
 20
358.632297
 30
0.0
 40
1.0
100
AcDbArc
 50
0.0
 51
90.0
  0
ARC
  5
24E
330
1F
100
AcDbEntity
  8
1
  6
CONTINUOUS
 62
   155
100
AcDbCircle
 10
-499.744735
 20
351.132297
 30
0.0
 40
4.600000000000001
210
-1.224646799147353E-16
220
0.0
230
-1.0
100
AcDbArc
 50
270.0
 51
90.0
  0
ARC
  5
24F
330
1F
100
AcDbEntity
  8
1
  6
CONTINUOUS
 62
   155
100
AcDbCircle
 10
574.744735
 20
357.932011
 30
0.0
 40
1.5
100
AcDbArc
 50
0.0
 51
41.82499
  0
ARC
  5
250
330
1F
100
AcDbEntity
  8
1
  6
CONTINUOUS
 62
   155
100
AcDbCircle
 10
-567.544735
 20
351.132297
 30
0.0
 40
2.0
210
-1.224646799147353E-16
220
0.0
230
-1.0
100
AcDbArc
 50
240.0
 51
300.0
  0
ARC
  5
251
330
1F
100
AcDbEntity
  8
1
  6
CONTINUOUS
 62
   155
100
AcDbCircle
 10
-603.944735
 20
343.632297
 30
0.0
 40
1.5
210
0.0
220
0.0
230
-1.0
100
AcDbArc
 50
180.0
 51
270.0
  0
ARC
  5
252
330
1F
100
AcDbEntity
  8
1
  6
CONTINUOUS
 62
   155
100
AcDbCircle
 10
603.944735
 20
343.632297
 30
0.0
 40
1.0
100
AcDbArc
 50
270.0
 51
0.0
  0
ARC
  5
253
330
1F
100
AcDbEntity
  8
1
  6
CONTINUOUS
 62
   155
100
AcDbCircle
 10
493.744735
 20
357.932011
 30
0.0
 40
1.5
100
AcDbArc
 50
138.17501
 51
180.0
  0
ARC
  5
254
330
1F
100
AcDbEntity
  8
1
  6
CONTINUOUS
 62
   155
100
AcDbCircle
 10
493.744735
 20
344.332583
 30
0.0
 40
1.5
100
AcDbArc
 50
180.0
 51
221.82499
  0
ARC
  5
255
330
1F
100
AcDbEntity
  8
1
  6
CONTINUOUS
 62
   155
100
AcDbCircle
 10
-603.944735
 20
358.632297
 30
0.0
 40
1.5
210
0.0
220
0.0
230
-1.0
100
AcDbArc
 50
90.0
 51
180.0
  0
ARC
  5
256
330
1F
100
AcDbEntity
  8
1
  6
CONTINUOUS
 62
   155
100
AcDbCircle
 10
-513.544735
 20
355.882297
 30
0.0
 40
1.5
210
0.0
220
0.0
230
-1.0
100
AcDbArc
 50
0.0
 51
90.0
  0
ARC
  5
257
330
1F
100
AcDbEntity
  8
1
  6
CONTINUOUS
 62
   155
100
AcDbCircle
 10
-501.144735
 20
351.132297
 30
0.0
 40
4.600000000000001
210
-1.224646799147353E-16
220
0.0
230
-1.0
100
AcDbArc
 50
90.0
 51
270.0
  0
ARC
  5
258
330
1F
100
AcDbEntity
  8
1
  6
CONTINUOUS
 62
   155
100
AcDbCircle
 10
-500.944735
 20
351.132297
 30
0.0
 40
2.0
210
0.0
220
0.0
230
-1.0
100
AcDbArc
 50
240.0
 51
300.0
  0
ARC
  5
259
330
1F
100
AcDbEntity
  8
1
  6
CONTINUOUS
 62
   155
100
AcDbCircle
 10
-568.744735
 20
351.132297
 30
0.0
 40
4.600000000000001
210
-1.224646799147353E-16
220
0.0
230
-1.0
100
AcDbArc
 50
90.0
 51
270.0
  0
ARC
  5
25A
330
1F
100
AcDbEntity
  8
1
  6
CONTINUOUS
 62
   155
100
AcDbCircle
 10
-500.944735
 20
351.132297
 30
0.0
 40
2.0
210
0.0
220
0.0
230
-1.0
100
AcDbArc
 50
180.0
 51
240.0
  0
ARC
  5
25B
330
1F
100
AcDbEntity
  8
1
  6
CONTINUOUS
 62
   155
100
AcDbCircle
 10
-554.944735
 20
355.882297
 30
0.0
 40
1.5
210
0.0
220
0.0
230
-1.0
100
AcDbArc
 50
90.0
 51
180.0
  0
ARC
  5
25C
330
1F
100
AcDbEntity
  8
1
  6
CONTINUOUS
 62
   155
100
AcDbCircle
 10
-567.344735
 20
351.132297
 30
0.0
 40
4.600000000000001
210
-1.224646799147353E-16
220
0.0
230
-1.0
100
AcDbArc
 50
270.0
 51
90.0
  0
ARC
  5
25D
330
1F
100
AcDbEntity
  8
1
  6
CONTINUOUS
 62
   155
100
AcDbCircle
 10
-513.544735
 20
346.382297
 30
0.0
 40
1.5
210
0.0
220
0.0
230
-1.0
100
AcDbArc
 50
270.0
 51
0.0
  0
ARC
  5
25E
330
1F
100
AcDbEntity
  8
1
  6
CONTINUOUS
 62
   155
100
AcDbCircle
 10
-554.944735
 20
346.382297
 30
0.0
 40
1.5
210
0.0
220
0.0
230
-1.0
100
AcDbArc
 50
180.0
 51
270.0
  0
ARC
  5
25F
330
1F
100
AcDbEntity
  8
1
  6
CONTINUOUS
 62
   155
100
AcDbCircle
 10
567.544735
 20
349.932297
 30
0.0
 40
3.350000000000009
100
AcDbArc
 50
180.0
 51
281.185304
  0
CIRCLE
  5
260
330
1F
100
AcDbEntity
  8
1
  6
CONTINUOUS
 62
   155
100
AcDbCircle
 10
-499.944735
 20
351.132297
 30
0.0
 40
4.500000000000001
210
0.0
220
0.0
230
-1.0
  0
ARC
  5
261
330
1F
100
AcDbEntity
  8
1
  6
CONTINUOUS
 62
   155
100
AcDbCircle
 10
394.944735
 20
343.632297
 30
0.0
 40
1.0
100
AcDbArc
 50
180.0
 51
270.0
  0
ARC
  5
262
330
1F
100
AcDbEntity
  8
1
  6
CONTINUOUS
 62
   155
100
AcDbCircle
 10
-394.944735
 20
343.632297
 30
0.0
 40
1.5
210
0.0
220
0.0
230
-1.0
100
AcDbArc
 50
270.0
 51
0.0
  0
ARC
  5
263
330
1F
100
AcDbEntity
  8
1
  6
CONTINUOUS
 62
   155
100
AcDbCircle
 10
-567.544735
 20
351.132297
 30
0.0
 40
2.0
210
-1.224646799147353E-16
220
0.0
230
-1.0
100
AcDbArc
 50
0.0
 51
60.0
  0
ARC
  5
264
330
1F
100
AcDbEntity
  8
1
  6
CONTINUOUS
 62
   155
100
AcDbCircle
 10
-394.944735
 20
358.632297
 30
0.0
 40
1.5
210
0.0
220
0.0
230
-1.0
100
AcDbArc
 50
0.0
 51
90.0
  0
ARC
  5
265
330
1F
100
AcDbEntity
  8
1
  6
CONTINUOUS
 62
   155
100
AcDbCircle
 10
-567.544735
 20
351.132297
 30
0.0
 40
2.0
210
-1.224646799147353E-16
220
0.0
230
-1.0
100
AcDbArc
 50
300.0
 51
0.0
  0
ARC
  5
266
330
1F
100
AcDbEntity
  8
1
  6
CONTINUOUS
 62
   155
100
AcDbCircle
 10
491.244735
 20
359.632297
 30
0.0
 40
0.4999999999999669
100
AcDbArc
 50
0.0
 51
90.0
  0
ARC
  5
267
330
1F
100
AcDbEntity
  8
1
  6
CONTINUOUS
 62
   155
100
AcDbCircle
 10
491.244735
 20
342.632297
 30
0.0
 40
0.4999999999999669
100
AcDbArc
 50
270.0
 51
0.0
  0
ARC
  5
268
330
1F
100
AcDbEntity
  8
1
  6
CONTINUOUS
 62
   155
100
AcDbCircle
 10
577.244735
 20
359.632297
 30
0.0
 40
0.5000000000000819
100
AcDbArc
 50
90.0
 51
180.0
  0
ARC
  5
269
330
1F
100
AcDbEntity
  8
1
  6
CONTINUOUS
 62
   155
100
AcDbCircle
 10
577.244735
 20
342.632297
 30
0.0
 40
0.5000000000002451
100
AcDbArc
 50
180.0
 51
270.0
  0
ARC
  5
26A
330
1F
100
AcDbEntity
  8
1
  6
CONTINUOUS
 62
   155
100
AcDbCircle
 10
638.948727
 20
359.632297
 30
0.0
 40
0.5
100
AcDbArc
 50
0.0
 51
90.0
  0
ARC
  5
26B
330
1F
100
AcDbEntity
  8
1
  6
CONTINUOUS
 62
   155
100
AcDbCircle
 10
-638.948727
 20
342.632297
 30
0.0
 40
0.5
210
6.123233995736766E-17
220
0.0
230
-1.0
100
AcDbArc
 50
180.0
 51
270.0
  0
ARC
  5
26C
330
1F
100
AcDbEntity
  8
1
  6
CONTINUOUS
 62
   155
100
AcDbCircle
 10
-864.99443
 20
343.632297
 30
0.0
 40
0.4999999999999992
210
-1.224646799147353E-16
220
0.0
230
-1.0
100
AcDbArc
 50
180.0
 51
270.0
  0
ARC
  5
26D
330
1F
100
AcDbEntity
  8
1
  6
CONTINUOUS
 62
   155
100
AcDbCircle
 10
865.99443
 20
354.132297
 30
0.0
 40
0.5
100
AcDbArc
 50
180.0
 51
270.0
  0
ARC
  5
26E
330
1F
100
AcDbEntity
  8
1
  6
CONTINUOUS
 62
   155
100
AcDbCircle
 10
866.848679
 20
348.132297
 30
0.0
 40
0.5000000000000102
100
AcDbArc
 50
48.590378
 51
90.0
  0
ARC
  5
26F
330
1F
100
AcDbEntity
  8
1
  6
CONTINUOUS
 62
   155
100
AcDbCircle
 10
866.848679
 20
354.132297
 30
0.0
 40
0.5
100
AcDbArc
 50
270.0
 51
311.409622
  0
ARC
  5
270
330
1F
100
AcDbEntity
  8
1
  6
CONTINUOUS
 62
   155
100
AcDbCircle
 10
686.140181
 20
348.132297
 30
0.0
 40
0.4999999999999996
100
AcDbArc
 50
90.0
 51
131.409622
  0
ARC
  5
271
330
1F
100
AcDbEntity
  8
1
  6
CONTINUOUS
 62
   155
100
AcDbCircle
 10
-683.49443
 20
351.132297
 30
0.0
 40
3.5
210
0.0
220
0.0
230
-1.0
100
AcDbArc
 50
228.590378
 51
131.409622
  0
ARC
  5
272
330
1F
100
AcDbEntity
  8
1
  6
CONTINUOUS
 62
   155
100
AcDbCircle
 10
-864.99443
 20
358.632297
 30
0.0
 40
0.5000000000000284
210
-1.224646799147353E-16
220
0.0
230
-1.0
100
AcDbArc
 50
90.0
 51
180.0
  0
CIRCLE
  5
273
330
1F
100
AcDbEntity
  8
1
  6
CONTINUOUS
 62
   155
100
AcDbCircle
 10
774.99443
 20
351.132297
 30
0.0
 40
4.000000000000001
  0
ARC
  5
274
330
1F
100
AcDbEntity
  8
1
  6
CONTINUOUS
 62
   155
100
AcDbCircle
 10
-687.99443
 20
358.632297
 30
0.0
 40
0.5000000000000107
210
0.0
220
0.0
230
-1.0
100
AcDbArc
 50
0.0
 51
90.0
  0
ARC
  5
275
330
1F
100
AcDbEntity
  8
1
  6
CONTINUOUS
 62
   155
100
AcDbCircle
 10
-696.19443
 20
358.632297
 30
0.0
 40
0.5000000000000018
210
0.0
220
0.0
230
-1.0
100
AcDbArc
 50
90.0
 51
180.0
  0
ARC
  5
276
330
1F
100
AcDbEntity
  8
1
  6
CONTINUOUS
 62
   155
100
AcDbCircle
 10
686.99443
 20
348.132297
 30
0.0
 40
0.5
100
AcDbArc
 50
0.0
 51
90.0
  0
CIRCLE
  5
277
330
1F
100
AcDbEntity
  8
1
  6
CONTINUOUS
 62
   155
100
AcDbCircle
 10
-683.49443
 20
351.132297
 30
0.0
 40
2.5
210
6.123233995736766E-17
220
0.0
230
-1.0
  0
CIRCLE
  5
278
330
1F
100
AcDbEntity
  8
1
  6
CONTINUOUS
 62
   155
100
AcDbCircle
 10
869.49443
 20
351.132297
 30
0.0
 40
2.5
  0
ARC
  5
279
330
1F
100
AcDbEntity
  8
1
  6
CONTINUOUS
 62
   155
100
AcDbCircle
 10
686.99443
 20
357.632297
 30
0.0
 40
0.4999999999999928
100
AcDbArc
 50
0.0
 51
90.0
  0
ARC
  5
27A
330
1F
100
AcDbEntity
  8
1
  6
CONTINUOUS
 62
   155
100
AcDbCircle
 10
686.99443
 20
354.132297
 30
0.0
 40
0.5
100
AcDbArc
 50
270.0
 51
0.0
  0
ARC
  5
27B
330
1F
100
AcDbEntity
  8
1
  6
CONTINUOUS
 62
   155
100
AcDbCircle
 10
-856.79443
 20
343.632297
 30
0.0
 40
0.4999999999999716
210
-1.224646799147353E-16
220
0.0
230
-1.0
100
AcDbArc
 50
270.0
 51
0.0
  0
ARC
  5
27C
330
1F
100
AcDbEntity
  8
1
  6
CONTINUOUS
 62
   155
100
AcDbCircle
 10
-687.99443
 20
343.632297
 30
0.0
 40
0.4999999999999992
210
0.0
220
0.0
230
-1.0
100
AcDbArc
 50
270.0
 51
360.0
  0
CIRCLE
  5
27D
330
1F
100
AcDbEntity
  8
1
  6
CONTINUOUS
 62
   155
100
AcDbCircle
 10
708.39443
 20
351.132297
 30
0.0
 40
4.000000000000001
  0
ARC
  5
27E
330
1F
100
AcDbEntity
  8
1
  6
CONTINUOUS
 62
   155
100
AcDbCircle
 10
-696.19443
 20
343.632297
 30
0.0
 40
0.4999999999999858
210
0.0
220
0.0
230
-1.0
100
AcDbArc
 50
180.0
 51
270.0
  0
CIRCLE
  5
27F
330
1F
100
AcDbEntity
  8
1
  6
CONTINUOUS
 62
   155
100
AcDbCircle
 10
774.99443
 20
351.132297
 30
0.0
 40
5.000000000000001
  0
ARC
  5
280
330
1F
100
AcDbEntity
  8
1
  6
CONTINUOUS
 62
   155
100
AcDbCircle
 10
686.99443
 20
344.632297
 30
0.0
 40
0.5
100
AcDbArc
 50
270.0
 51
0.0
  0
CIRCLE
  5
281
330
1F
100
AcDbEntity
  8
1
  6
CONTINUOUS
 62
   155
100
AcDbCircle
 10
-708.39443
 20
351.132297
 30
0.0
 40
5.000000000000001
210
6.123233995736766E-17
220
0.0
230
-1.0
  0
CIRCLE
  5
282
330
1F
100
AcDbEntity
  8
1
  6
CONTINUOUS
 62
   155
100
AcDbCircle
 10
-774.99443
 20
351.132297
 30
0.0
 40
3.4
210
0.0
220
0.0
230
-1.0
  0
ARC
  5
283
330
1F
100
AcDbEntity
  8
1
  6
CONTINUOUS
 62
   155
100
AcDbCircle
 10
-856.79443
 20
358.632297
 30
0.0
 40
0.5000000000000018
210
-1.224646799147353E-16
220
0.0
230
-1.0
100
AcDbArc
 50
0.0
 51
90.0
  0
CIRCLE
  5
284
330
1F
100
AcDbEntity
  8
1
  6
CONTINUOUS
 62
   155
100
AcDbCircle
 10
-708.39443
 20
351.132297
 30
0.0
 40
3.4
210
-1.224646799147353E-16
220
0.0
230
-1.0
  0
ARC
  5
285
330
1F
100
AcDbEntity
  8
1
  6
CONTINUOUS
 62
   155
100
AcDbCircle
 10
865.99443
 20
348.132297
 30
0.0
 40
0.5
100
AcDbArc
 50
90.0
 51
180.0
  0
ARC
  5
286
330
1F
100
AcDbEntity
  8
1
  6
CONTINUOUS
 62
   155
100
AcDbCircle
 10
-869.49443
 20
351.132297
 30
0.0
 40
3.499999999999999
210
-1.224646799147353E-16
220
0.0
230
-1.0
100
AcDbArc
 50
48.590378
 51
311.409622
  0
ARC
  5
287
330
1F
100
AcDbEntity
  8
1
  6
CONTINUOUS
 62
   155
100
AcDbCircle
 10
880.99443
 20
343.632297
 30
0.0
 40
1.5
100
AcDbArc
 50
270.0
 51
0.0
  0
ARC
  5
288
330
1F
100
AcDbEntity
  8
1
  6
CONTINUOUS
 62
   155
100
AcDbCircle
 10
880.99443
 20
358.632297
 30
0.0
 40
1.5
100
AcDbArc
 50
0.0
 51
90.0
  0
ARC
  5
289
330
1F
100
AcDbEntity
  8
1
  6
CONTINUOUS
 62
   155
100
AcDbCircle
 10
671.99443
 20
358.632297
 30
0.0
 40
1.5
100
AcDbArc
 50
90.0
 51
180.0
  0
ARC
  5
28A
330
1F
100
AcDbEntity
  8
1
  6
CONTINUOUS
 62
   155
100
AcDbCircle
 10
671.99443
 20
343.632297
 30
0.0
 40
1.5
100
AcDbArc
 50
180.0
 51
270.0
  0
ARC
  5
28B
330
1F
100
AcDbEntity
  8
1
  6
CONTINUOUS
 62
   155
100
AcDbCircle
 10
-865.99443
 20
357.632297
 30
0.0
 40
0.4999999999999928
210
-1.224646799147353E-16
220
0.0
230
-1.0
100
AcDbArc
 50
0.0
 51
90.0
  0
ARC
  5
28C
330
1F
100
AcDbEntity
  8
1
  6
CONTINUOUS
 62
   155
100
AcDbCircle
 10
686.140181
 20
354.132297
 30
0.0
 40
0.5
100
AcDbArc
 50
228.590378
 51
270.0
  0
ARC
  5
28D
330
1F
100
AcDbEntity
  8
1
  6
CONTINUOUS
 62
   155
100
AcDbCircle
 10
-865.99443
 20
344.632297
 30
0.0
 40
0.5
210
-1.224646799147353E-16
220
0.0
230
-1.0
100
AcDbArc
 50
270.0
 51
0.0
  0
ARC
  5
28E
330
1F
100
AcDbEntity
  8
1
  6
CONTINUOUS
 62
   155
100
AcDbCircle
 10
-789.99443
 20
346.132297
 30
0.0
 40
3.0
210
-1.224646799147353E-16
220
0.0
230
-1.0
100
AcDbArc
 50
180.0
 51
0.0
  0
ARC
  5
28F
330
1F
100
AcDbEntity
  8
1
  6
CONTINUOUS
 62
   155
100
AcDbCircle
 10
-789.99443
 20
356.132297
 30
0.0
 40
3.0
210
-1.224646799147353E-16
220
0.0
230
-1.0
100
AcDbArc
 50
0.0
 51
180.0
  0
ARC
  5
290
330
1F
100
AcDbEntity
  8
1
  6
CONTINUOUS
 62
   155
100
AcDbCircle
 10
-595.444735
 20
405.760363
 30
0.0
 40
8.000000000000002
210
-1.224646799147353E-16
220
0.0
230
-1.0
100
AcDbArc
 50
180.0
 51
270.0
  0
ARC
  5
291
330
1F
100
AcDbEntity
  8
1
  6
CONTINUOUS
 62
   155
100
AcDbCircle
 10
604.944735
 20
406.860363
 30
0.0
 40
0.5
100
AcDbArc
 50
0.0
 51
90.0
  0
ARC
  5
292
330
1F
100
AcDbEntity
  8
1
  6
CONTINUOUS
 62
   155
100
AcDbCircle
 10
-403.444735
 20
405.760363
 30
0.0
 40
8.0
210
-1.224646799147353E-16
220
0.0
230
-1.0
100
AcDbArc
 50
270.0
 51
0.0
  0
ARC
  5
293
330
1F
100
AcDbEntity
  8
1
  6
CONTINUOUS
 62
   155
100
AcDbCircle
 10
-397.659095
 20
407.560363
 30
0.0
 40
1.3
210
-1.224646799147353E-16
220
0.0
230
-1.0
100
AcDbArc
 50
270.0
 51
300.0
  0
ARC
  5
294
330
1F
100
AcDbEntity
  8
1
  6
CONTINUOUS
 62
   155
100
AcDbCircle
 10
396.191145
 20
406.560363
 30
0.0
 40
0.3
100
AcDbArc
 50
60.0
 51
90.0
  0
ARC
  5
295
330
1F
100
AcDbEntity
  8
1
  6
CONTINUOUS
 62
   155
100
AcDbCircle
 10
397.659095
 20
407.560363
 30
0.0
 40
0.8
100
AcDbArc
 50
240.0
 51
270.0
  0
ARC
  5
296
330
1F
100
AcDbEntity
  8
1
  6
CONTINUOUS
 62
   155
100
AcDbCircle
 10
-601.230376
 20
407.560363
 30
0.0
 40
1.3
210
-1.224646799147353E-16
220
0.0
230
-1.0
100
AcDbArc
 50
240.0
 51
270.0
  0
ARC
  5
297
330
1F
100
AcDbEntity
  8
1
  6
CONTINUOUS
 62
   155
100
AcDbCircle
 10
-602.698325
 20
406.560363
 30
0.0
 40
0.8
210
-1.224646799147353E-16
220
0.0
230
-1.0
100
AcDbArc
 50
60.0
 51
90.0
  0
ARC
  5
298
330
1F
100
AcDbEntity
  8
1
  6
CONTINUOUS
 62
   155
100
AcDbCircle
 10
393.944735
 20
406.860363
 30
0.0
 40
0.5
100
AcDbArc
 50
90.0
 51
180.0
  0
ARC
  5
299
330
1F
100
AcDbEntity
  8
1
  6
CONTINUOUS
 62
   155
100
AcDbCircle
 10
-396.191145
 20
406.560363
 30
0.0
 40
0.8
210
-1.224646799147353E-16
220
0.0
230
-1.0
100
AcDbArc
 50
90.0
 51
120.0
  0
ARC
  5
29A
330
1F
100
AcDbEntity
  8
1
  6
CONTINUOUS
 62
   155
100
AcDbCircle
 10
602.698325
 20
406.560363
 30
0.0
 40
0.3
100
AcDbArc
 50
90.0
 51
120.0
  0
ARC
  5
29B
330
1F
100
AcDbEntity
  8
1
  6
CONTINUOUS
 62
   155
100
AcDbCircle
 10
601.230376
 20
407.560363
 30
0.0
 40
0.8
100
AcDbArc
 50
270.0
 51
300.0
  0
ARC
  5
29C
330
1F
100
AcDbEntity
  8
1
  6
CONTINUOUS
 62
   155
100
AcDbCircle
 10
573.894735
 20
403.860363
 30
0.0
 40
0.7000000000001314
100
AcDbArc
 50
90.0
 51
180.0
  0
ARC
  5
29D
330
1F
100
AcDbEntity
  8
1
  6
CONTINUOUS
 62
   155
100
AcDbCircle
 10
573.894735
 20
406.060363
 30
0.0
 40
0.6999999999999967
100
AcDbArc
 50
90.0
 51
180.0
  0
ARC
  5
29E
330
1F
100
AcDbEntity
  8
1
  6
CONTINUOUS
 62
   155
100
AcDbCircle
 10
573.894735
 20
405.260363
 30
0.0
 40
0.7000000000001334
100
AcDbArc
 50
180.0
 51
270.0
  0
ARC
  5
29F
330
1F
100
AcDbEntity
  8
1
  6
CONTINUOUS
 62
   155
100
AcDbCircle
 10
573.894735
 20
403.060363
 30
0.0
 40
0.7000000000000016
100
AcDbArc
 50
180.0
 51
270.0
  0
ARC
  5
2A0
330
1F
100
AcDbEntity
  8
1
  6
CONTINUOUS
 62
   155
100
AcDbCircle
 10
601.230376
 20
291.355885
 30
0.0
 40
0.8
100
AcDbArc
 50
60.0
 51
90.0
  0
ARC
  5
2A1
330
1F
100
AcDbEntity
  8
1
  6
CONTINUOUS
 62
   155
100
AcDbCircle
 10
-601.230376
 20
291.355885
 30
0.0
 40
1.3
210
-1.224646799147353E-16
220
0.0
230
-1.0
100
AcDbArc
 50
90.0
 51
120.0
  0
ARC
  5
2A2
330
1F
100
AcDbEntity
  8
1
  6
CONTINUOUS
 62
   155
100
AcDbCircle
 10
-602.698325
 20
292.355885
 30
0.0
 40
0.8
210
-1.224646799147353E-16
220
0.0
230
-1.0
100
AcDbArc
 50
270.0
 51
300.0
  0
ARC
  5
2A3
330
1F
100
AcDbEntity
  8
1
  6
CONTINUOUS
 62
   155
100
AcDbCircle
 10
397.659095
 20
291.355885
 30
0.0
 40
0.8
100
AcDbArc
 50
90.0
 51
120.0
  0
ARC
  5
2A4
330
1F
100
AcDbEntity
  8
1
  6
CONTINUOUS
 62
   155
100
AcDbCircle
 10
595.444735
 20
293.155885
 30
0.0
 40
8.000000000000002
100
AcDbArc
 50
0.0
 51
90.0
  0
ARC
  5
2A5
330
1F
100
AcDbEntity
  8
1
  6
CONTINUOUS
 62
   155
100
AcDbCircle
 10
-604.944735
 20
292.055885
 30
0.0
 40
0.5
210
0.0
220
0.0
230
-1.0
100
AcDbArc
 50
180.0
 51
270.0
  0
ARC
  5
2A6
330
1F
100
AcDbEntity
  8
1
  6
CONTINUOUS
 62
   155
100
AcDbCircle
 10
-397.659095
 20
291.355885
 30
0.0
 40
1.3
210
-1.224646799147353E-16
220
0.0
230
-1.0
100
AcDbArc
 50
60.0
 51
90.0
  0
ARC
  5
2A7
330
1F
100
AcDbEntity
  8
1
  6
CONTINUOUS
 62
   155
100
AcDbCircle
 10
396.191145
 20
292.355885
 30
0.0
 40
0.3
100
AcDbArc
 50
270.0
 51
300.0
  0
ARC
  5
2A8
330
1F
100
AcDbEntity
  8
1
  6
CONTINUOUS
 62
   155
100
AcDbCircle
 10
-393.944735
 20
292.055885
 30
0.0
 40
0.5
210
0.0
220
0.0
230
-1.0
100
AcDbArc
 50
270.0
 51
0.0
  0
ARC
  5
2A9
330
1F
100
AcDbEntity
  8
1
  6
CONTINUOUS
 62
   155
100
AcDbCircle
 10
-396.191145
 20
292.355885
 30
0.0
 40
0.8
210
-1.224646799147353E-16
220
0.0
230
-1.0
100
AcDbArc
 50
240.0
 51
270.0
  0
ARC
  5
2AA
330
1F
100
AcDbEntity
  8
1
  6
CONTINUOUS
 62
   155
100
AcDbCircle
 10
403.444735
 20
293.155885
 30
0.0
 40
8.0
100
AcDbArc
 50
90.0
 51
180.0
  0
ARC
  5
2AB
330
1F
100
AcDbEntity
  8
1
  6
CONTINUOUS
 62
   155
100
AcDbCircle
 10
602.698325
 20
292.355885
 30
0.0
 40
0.3
100
AcDbArc
 50
240.0
 51
270.0
  0
ARC
  5
2AC
330
1F
100
AcDbEntity
  8
1
  6
CONTINUOUS
 62
   155
100
AcDbCircle
 10
363.099226
 20
359.632297
 30
0.0
 40
0.5
100
AcDbArc
 50
90.0
 51
180.0
  0
ARC
  5
2AD
330
1F
100
AcDbEntity
  8
1
  6
CONTINUOUS
 62
   155
100
AcDbCircle
 10
-363.099226
 20
342.632297
 30
0.0
 40
0.5
210
0.0
220
0.0
230
-1.0
100
AcDbArc
 50
270.0
 51
360.0
  0
ELLIPSE
  5
2AE
330
1F
100
AcDbEntity
  8
1
  6
CONTINUOUS
 62
   155
100
AcDbEllipse
 10
601.880376
 20
359.632297
 30
0.0
 11
0.0
 21
0.5
 31
0.0
210
0.0
220
0.0
230
1.0
 40
0.5
 41
0.0
 42
1.570796326794897
  0
ELLIPSE
  5
2AF
330
1F
100
AcDbEntity
  8
1
  6
CONTINUOUS
 62
   155
100
AcDbEllipse
 10
602.548325
 20
359.632297
 30
0.0
 11
0.0
 21
0.5
 31
0.0
210
0.0
220
0.0
230
1.0
 40
0.5
 41
0.0
 42
1.570796326794897
  0
ELLIPSE
  5
2B0
330
1F
100
AcDbEntity
  8
1
  6
CONTINUOUS
 62
   155
100
AcDbEllipse
 10
416.544735
 20
353.106094
 30
0.0
 11
4.150674849138624
 21
0.0
 31
0.0
210
0.0
220
0.0
230
1.0
 40
0.906308
 41
5.730826830244474
 42
9.977136437704488
  0
ELLIPSE
  5
2B1
330
1F
100
AcDbEntity
  8
1
  6
CONTINUOUS
 62
   155
100
AcDbEllipse
 10
397.009095
 20
342.632297
 30
0.0
 11
0.0
 21
0.5
 31
0.0
210
0.0
220
0.0
230
1.0
 40
0.5
 41
3.141592653589793
 42
4.71238898038469
  0
ELLIPSE
  5
2B2
330
1F
100
AcDbEntity
  8
1
  6
CONTINUOUS
 62
   155
100
AcDbEllipse
 10
602.548325
 20
342.632297
 30
0.0
 11
0.0
 21
-0.5
 31
0.0
210
0.0
220
0.0
230
1.0
 40
0.5
 41
4.71238898038469
 42
6.283185307179586
  0
ELLIPSE
  5
2B3
330
1F
100
AcDbEntity
  8
1
  6
CONTINUOUS
 62
   155
100
AcDbEllipse
 10
396.341145
 20
342.632297
 30
0.0
 11
0.0
 21
0.5
 31
0.0
210
0.0
220
0.0
230
1.0
 40
0.5
 41
3.141592653589793
 42
4.71238898038469
  0
ELLIPSE
  5
2B4
330
1F
100
AcDbEntity
  8
1
  6
CONTINUOUS
 62
   155
100
AcDbEllipse
 10
396.341145
 20
359.632297
 30
0.0
 11
0.0
 21
-0.5
 31
0.0
210
0.0
220
0.0
230
1.0
 40
0.5
 41
1.570796326794897
 42
3.141592653589793
  0
ELLIPSE
  5
2B5
330
1F
100
AcDbEntity
  8
1
  6
CONTINUOUS
 62
   155
100
AcDbEllipse
 10
601.880376
 20
342.632297
 30
0.0
 11
0.0
 21
-0.5
 31
0.0
210
0.0
220
0.0
230
1.0
 40
0.5
 41
4.71238898038469
 42
6.283185307179586
  0
ELLIPSE
  5
2B6
330
1F
100
AcDbEntity
  8
1
  6
CONTINUOUS
 62
   155
100
AcDbEllipse
 10
397.009095
 20
359.632297
 30
0.0
 11
0.0
 21
-0.5
 31
0.0
210
0.0
220
0.0
230
1.0
 40
0.5
 41
1.570796326794897
 42
3.141592653589793
  0
ELLIPSE
  5
2B7
330
1F
100
AcDbEntity
  8
1
  6
CONTINUOUS
 62
   155
100
AcDbEllipse
 10
416.544735
 20
349.1585
 30
0.0
 11
4.150674849138624
 21
0.0
 31
0.0
210
0.0
220
0.0
230
1.0
 40
0.906308
 41
2.589234176654681
 42
6.835543784114698
  0
ELLIPSE
  5
2B8
330
1F
100
AcDbEntity
  8
1
  6
CONTINUOUS
 62
   155
100
AcDbEllipse
 10
485.944735
 20
353.106094
 30
0.0
 11
-4.150674849138624
 21
0.0
 31
0.0
210
0.0
220
0.0
230
1.0
 40
0.906308
 41
2.589234176654682
 42
6.8355437841147
  0
ELLIPSE
  5
2B9
330
1F
100
AcDbEntity
  8
1
  6
CONTINUOUS
 62
   155
100
AcDbEllipse
 10
583.444735
 20
353.106094
 30
0.0
 11
4.150674849138624
 21
0.0
 31
0.0
210
0.0
220
0.0
230
1.0
 40
0.906308
 41
5.730826830244474
 42
9.977136437704493
  0
ELLIPSE
  5
2BA
330
1F
100
AcDbEntity
  8
1
  6
CONTINUOUS
 62
   155
100
AcDbEllipse
 10
485.944735
 20
349.1585
 30
0.0
 11
-4.150674849138624
 21
0.0
 31
0.0
210
0.0
220
0.0
230
1.0
 40
0.906308
 41
5.730826830244474
 42
9.97713643770449
  0
ELLIPSE
  5
2BB
330
1F
100
AcDbEntity
  8
1
  6
CONTINUOUS
 62
   155
100
AcDbEllipse
 10
583.444735
 20
349.1585
 30
0.0
 11
4.150674849138624
 21
0.0
 31
0.0
210
0.0
220
0.0
230
1.0
 40
0.906308
 41
2.589234176654682
 42
6.835543784114699
  0
ELLIPSE
  5
2BC
330
1F
100
AcDbEntity
  8
1
  6
CONTINUOUS
 62
   155
100
AcDbEllipse
 10
491.6823
 20
406.060363
 30
0.0
 11
2.612435565295914
 21
0.0
 31
0.0
210
0.0
220
0.0
230
1.0
 40
0.267949
 41
0.0
 42
0.8751775249090746
  0
ELLIPSE
  5
2BD
330
1F
100
AcDbEntity
  8
1
  6
CONTINUOUS
 62
   155
100
AcDbEllipse
 10
491.6823
 20
405.260363
 30
0.0
 11
2.61243556529591
 21
0.0
 31
0.0
210
0.0
220
0.0
230
1.0
 40
0.267949
 41
5.408007782270511
 42
6.283185307179586
  0
ELLIPSE
  5
2BE
330
1F
100
AcDbEntity
  8
1
  6
CONTINUOUS
 62
   155
100
AcDbEllipse
 10
491.6823
 20
403.860363
 30
0.0
 11
2.612435565301979
 21
0.0
 31
0.0
210
0.0
220
0.0
230
1.0
 40
0.267949
 41
0.0
 42
0.8751775249079836
  0
ELLIPSE
  5
2BF
330
1F
100
AcDbEntity
  8
1
  6
CONTINUOUS
 62
   155
100
AcDbEllipse
 10
491.6823
 20
403.060363
 30
0.0
 11
2.612435565303064
 21
0.0
 31
0.0
210
0.0
220
0.0
230
1.0
 40
0.267949
 41
5.408007782271789
 42
6.283185307179586
  0
ELLIPSE
  5
2C0
330
1F
100
AcDbEntity
  8
1
  6
CONTINUOUS
 62
   155
100
AcDbEllipse
 10
491.6823
 20
295.055885
 30
0.0
 11
2.612435565302457
 21
0.0
 31
0.0
210
0.0
220
0.0
230
-1.0
 40
0.267949
 41
0.0
 42
0.8751775249078984
  0
ELLIPSE
  5
2C1
330
1F
100
AcDbEntity
  8
1
  6
CONTINUOUS
 62
   155
100
AcDbEllipse
 10
491.6823
 20
295.855885
 30
0.0
 11
2.612435565303696
 21
0.0
 31
0.0
210
0.0
220
0.0
230
-1.0
 40
0.267949
 41
5.408007782271901
 42
6.283185307179586
  0
ELLIPSE
  5
2C2
330
1F
100
AcDbEntity
  8
1
  6
CONTINUOUS
 62
   155
100
AcDbEllipse
 10
576.807171
 20
292.855885
 30
0.0
 11
2.61243556529611
 21
0.0
 31
0.0
210
0.0
220
0.0
230
-1.0
 40
0.267949
 41
2.26641512868076
 42
3.141592653589793
  0
ELLIPSE
  5
2C3
330
1F
100
AcDbEntity
  8
1
  6
CONTINUOUS
 62
   155
100
AcDbEllipse
 10
491.6823
 20
293.655885
 30
0.0
 11
2.612435565295917
 21
0.0
 31
0.0
210
0.0
220
0.0
230
-1.0
 40
0.267949
 41
5.408007782270512
 42
6.283185307179586
  0
ELLIPSE
  5
2C4
330
1F
100
AcDbEntity
  8
1
  6
CONTINUOUS
 62
   155
100
AcDbEllipse
 10
491.6823
 20
292.855885
 30
0.0
 11
2.612435565295949
 21
0.0
 31
0.0
210
0.0
220
0.0
230
-1.0
 40
0.267949
 41
0.0
 42
0.8751775249090684
  0
ELLIPSE
  5
2C5
330
1F
100
AcDbEntity
  8
1
  6
CONTINUOUS
 62
   155
100
AcDbEllipse
 10
576.807171
 20
293.655885
 30
0.0
 11
2.61243556530043
 21
0.0
 31
0.0
210
0.0
220
0.0
230
-1.0
 40
0.267949
 41
3.141592653589793
 42
4.016770178498059
  0
ELLIPSE
  5
2C6
330
1F
100
AcDbEntity
  8
1
  6
CONTINUOUS
 62
   155
100
AcDbEllipse
 10
576.807171
 20
295.855885
 30
0.0
 11
2.61243556529721
 21
0.0
 31
0.0
210
0.0
220
0.0
230
-1.0
 40
0.267949
 41
3.141592653589793
 42
4.016770178498636
  0
ELLIPSE
  5
2C7
330
1F
100
AcDbEntity
  8
1
  6
CONTINUOUS
 62
   155
100
AcDbEllipse
 10
576.807171
 20
295.055885
 30
0.0
 11
2.612435565298092
 21
0.0
 31
0.0
210
0.0
220
0.0
230
-1.0
 40
0.267949
 41
2.26641512868111
 42
3.141592653589793
  0
SPLINE
  5
2C8
330
1F
100
AcDbEntity
  8
1
  6
CONTINUOUS
 62
   155
100
AcDbSpline
210
0.0
220
0.0
230
1.0
 70
     8
 71
     3
 72
    22
 73
    18
 74
     0
 42
0.000000001
 43
0.0000000001
 40
0.0
 40
0.0
 40
0.0
 40
0.0
 40
0.0874179056865207
 40
0.1140150266872308
 40
0.1406121476879408
 40
0.193806389689361
 40
0.3001948736922013
 40
0.4065833576950416
 40
0.5129718416978818
 40
0.6193603257007221
 40
0.7257488097035624
 40
0.8321372937064027
 40
0.8587344147071126
 40
0.8853315357078227
 40
0.938525777709243
 40
0.938525777709243
 40
1.0
 40
1.0
 40
1.0
 40
1.0
 10
587.5710757301192
 20
351.1322358951772
 30
0.0
 10
587.6974710960674
 20
351.6024677147333
 30
0.0
 10
587.7865446157252
 20
352.2362018256159
 30
0.0
 10
587.7907645139966
 20
353.0202501784169
 30
0.0
 10
587.756029227693
 20
353.6131454104559
 30
0.0
 10
587.4845765094421
 20
354.6248407704103
 30
0.0
 10
586.5943303440613
 20
355.8582490220689
 30
0.0
 10
585.0153314119977
 20
356.754154050631
 30
0.0
 10
583.2229895913725
 20
357.0021851797488
 30
0.0
 10
581.4593006682198
 20
356.5943397274814
 30
0.0
 10
579.9742278477419
 20
355.5459714667056
 30
0.0
 10
579.3032331610445
 20
354.3497861209307
 30
0.0
 10
579.1260446974183
 20
353.4755752814062
 30
0.0
 10
579.0904189503735
 20
352.8828559815549
 30
0.0
 10
579.1051437177333
 20
352.4374935722789
 30
0.0
 10
579.1660680624315
 20
351.8011511940585
 30
0.0
 10
579.2272205041311
 20
351.4626077335606
 30
0.0
 10
579.3171247555222
 20
351.1319466297577
 30
0.0
  0
SPLINE
  5
2C9
330
1F
100
AcDbEntity
  8
1
  6
CONTINUOUS
 62
   155
100
AcDbSpline
210
0.0
220
0.0
230
1.0
 70
     8
 71
     3
 72
    10
 73
     6
 74
     0
 42
0.000000001
 43
0.0000000001
 40
0.0
 40
0.0
 40
0.0
 40
0.0
 40
0.5
 40
0.5
 40
1.0
 40
1.0
 40
1.0
 40
1.0
 10
478.7447352740965
 20
356.6322968878917
 30
0.0
 10
479.1385373303544
 20
356.6322968878632
 30
0.0
 10
479.5277152828108
 20
356.4706372227375
 30
0.0
 10
480.0830756089418
 20
355.9152768966055
 30
0.0
 10
480.2447352740691
 20
355.5260989441502
 30
0.0
 10
480.2447352740965
 20
355.1322968878917
 30
0.0
  0
SPLINE
  5
2CA
330
1F
100
AcDbEntity
  8
1
  6
CONTINUOUS
 62
   155
100
AcDbSpline
210
0.0
220
0.0
230
1.0
 70
     8
 71
     3
 72
    56
 73
    52
 74
     0
 42
0.000000001
 43
0.0000000001
 40
-0.03125
 40
-0.015625
 40
0.0
 40
0.0
 40
0.00234375
 40
0.0625
 40
0.125
 40
0.1875
 40
0.21875
 40
0.2265625
 40
0.23046875
 40
0.234375
 40
0.2421875
 40
0.25
 40
0.265625
 40
0.28125
 40
0.296875
 40
0.3125
 40
0.328125
 40
0.34375
 40
0.375
 40
0.390625
 40
0.40625
 40
0.421875
 40
0.4375
 40
0.453125
 40
0.4658203125
 40
0.46875
 40
0.47265625
 40
0.4765625
 40
0.484375
 40
0.5
 40
0.625
 40
0.65625
 40
0.6875
 40
0.6953125
 40
0.703125
 40
0.70703125
 40
0.7109375
 40
0.71875
 40
0.75
 40
0.78125
 40
0.796875
 40
0.8125
 40
0.84375
 40
0.859375
 40
0.875
 40
0.890625
 40
0.90625
 40
0.9375
 40
0.96875
 40
0.984375
 40
1.0
 40
1.0
 40
1.00234375
 40
1.0625
 10
581.3443133567713
 20
348.7388531139113
 30
0.0
 10
581.3265393639879
 20
348.6474960907174
 30
0.0
 10
581.3040819382376
 20
348.5295701511986
 30
0.0
 10
581.2834927433084
 20
348.2857478455814
 30
0.0
 10
581.3254393312794
 20
347.9207225687305
 30
0.0
 10
581.4246864126525
 20
347.6266120631365
 30
0.0
 10
581.5186674444559
 20
347.4450093911568
 30
0.0
 10
581.5602779076569
 20
347.3753455207079
 30
0.0
 10
581.5814118977453
 20
347.3409195784075
 30
0.0
 10
581.6092593123428
 20
347.2979952151628
 30
0.0
 10
581.6617402817984
 20
347.2238377147834
 30
0.0
 10
581.7678156326305
 20
347.0885325613557
 30
0.0
 10
581.9126197652222
 20
346.9389599817876
 30
0.0
 10
582.1241446748303
 20
346.7683288925869
 30
0.0
 10
582.3708399711695
 20
346.6182204078023
 30
0.0
 10
582.64789867395
 20
346.4962581990698
 30
0.0
 10
582.9505138028818
 20
346.4100659380252
 30
0.0
 10
583.3751173493381
 20
346.3486975600891
 30
0.0
 10
583.8119581671333
 20
346.376453197147
 30
0.0
 10
584.2169382772581
 20
346.4878465187336
 30
0.0
 10
584.497046326844
 20
346.6068421670722
 30
0.0
 10
584.74583066425
 20
346.7549202874439
 30
0.0
 10
584.9593230773435
 20
346.9219227116085
 30
0.0
 10
585.1341927755064
 20
347.1044428125764
 30
0.0
 10
585.2319717548498
 20
347.2293337530628
 30
0.0
 10
585.2789513388154
 20
347.2964328696191
 30
0.0
 10
585.3011135943225
 20
347.3301860586968
 30
0.0
 10
585.3264858466857
 20
347.3708442999397
 30
0.0
 10
585.3508955486612
 20
347.4114515994429
 30
0.0
 10
585.497500690399
 20
347.6755610802596
 30
0.0
 10
585.5907064897563
 20
348.0062498265233
 30
0.0
 10
585.596813880778
 20
348.3744473172401
 30
0.0
 10
585.5822405690994
 20
348.524028846272
 30
0.0
 10
585.5743438016781
 20
348.5869779273083
 30
0.0
 10
585.5672031265964
 20
348.6267376532122
 30
0.0
 10
585.5518116589213
 20
348.7014169630904
 30
0.0
 10
585.531445731706
 20
348.7889351527015
 30
0.0
 10
585.4610171915816
 20
349.0176342267512
 30
0.0
 10
585.2545724864976
 20
349.4226695107454
 30
0.0
 10
584.8755162837513
 20
349.7927238501495
 30
0.0
 10
584.5087786061357
 20
350.0152681533987
 30
0.0
 10
584.1142591653664
 20
350.1835866643929
 30
0.0
 10
583.6998871505544
 20
350.2627269668964
 30
0.0
 10
583.311707424945
 20
350.2645315231836
 30
0.0
 10
583.0075427921128
 20
350.2284943549761
 30
0.0
 10
582.7015575437189
 20
350.1495491779681
 30
0.0
 10
582.3056670271385
 20
349.9871203301803
 30
0.0
 10
581.8606922251105
 20
349.6769719982833
 30
0.0
 10
581.5479317042874
 20
349.2655341576802
 30
0.0
 10
581.3922659813475
 20
348.9151569227773
 30
0.0
 10
581.3443133567713
 20
348.7388531139113
 30
0.0
 10
581.3265393639879
 20
348.6474960907174
 30
0.0
  0
SPLINE
  5
2CB
330
1F
100
AcDbEntity
  8
1
  6
CONTINUOUS
 62
   155
100
AcDbSpline
210
0.0
220
0.0
230
1.0
 70
     8
 71
     3
 72
    10
 73
     6
 74
     0
 42
0.000000001
 43
0.0000000001
 40
0.0
 40
0.0
 40
0.0
 40
0.0
 40
0.5
 40
0.5
 40
1.0
 40
1.0
 40
1.0
 40
1.0
 10
478.7447352740965
 20
356.6672070177481
 30
0.0
 10
479.1477024509687
 20
356.6672070177182
 30
0.0
 10
479.5459379053307
 20
356.5017849793251
 30
0.0
 10
480.1142233655291
 20
355.9334995191251
 30
0.0
 10
480.2796454039255
 20
355.5352640647646
 30
0.0
 10
480.2796454039529
 20
355.1322968878917
 30
0.0
  0
SPLINE
  5
2CC
330
1F
100
AcDbEntity
  8
1
  6
CONTINUOUS
 62
   155
100
AcDbSpline
210
0.0
220
0.0
230
1.0
 70
     8
 71
     2
 72
    24
 73
    21
 74
     0
 42
0.000000001
 43
0.0000000001
 40
0.0
 40
0.0
 40
0.0
 40
0.0625
 40
0.0625
 40
0.125
 40
0.125
 40
0.25
 40
0.25
 40
0.375
 40
0.375
 40
0.5
 40
0.5
 40
0.625
 40
0.625
 40
0.75
 40
0.75
 40
0.875
 40
0.875
 40
0.9375
 40
0.9375
 40
1.0
 40
1.0
 40
1.0
 10
587.5711595126583
 20
351.1323804239149
 30
0.0
 10
587.7040240680304
 20
350.6386845192245
 30
0.0
 10
587.75560844995
 20
350.1099190177073
 30
0.0
 10
587.8118438499922
 20
349.5334782734398
 30
0.0
 10
587.7766090417973
 20
349.0268758109159
 30
0.0
 10
587.704377489488
 20
347.9883379517229
 30
0.0
 10
587.075611475984
 20
347.1273188874072
 30
0.0
 10
586.4594448875046
 20
346.2835532129258
 30
0.0
 10
585.4760733481077
 20
345.8186724750656
 30
0.0
 10
584.5171516420862
 20
345.3653501931144
 30
0.0
 10
583.446223335481
 20
345.3666582547398
 30
0.0
 10
582.3675494143819
 20
345.3679757770743
 30
0.0
 10
581.4174616905964
 20
345.8176755366526
 30
0.0
 10
580.4293870515374
 20
346.2853554324204
 30
0.0
 10
579.812327547224
 20
347.1298340366383
 30
0.0
 10
579.2062825485949
 20
347.9592387066219
 30
0.0
 10
579.1173043617425
 20
348.9795886365217
 30
0.0
 10
579.0737614608751
 20
349.4789132172928
 30
0.0
 10
579.1309252765916
 20
350.0959316440707
 30
0.0
 10
579.1806796146125
 20
350.6329731796332
 30
0.0
 10
579.3166350682088
 20
351.1327803773036
 30
0.0
  0
SPLINE
  5
2CD
330
1F
100
AcDbEntity
  8
1
  6
CONTINUOUS
 62
   155
100
AcDbSpline
210
0.0
220
0.0
230
1.0
 70
     8
 71
     3
 72
    10
 73
     6
 74
     0
 42
0.000000001
 43
0.0000000001
 40
0.0
 40
0.0
 40
0.0
 40
0.0
 40
0.5
 40
0.5
 40
1.0
 40
1.0
 40
1.0
 40
1.0
 10
480.2447352740965
 20
347.1322968878918
 30
0.0
 10
480.2447352740691
 20
346.7384948316332
 30
0.0
 10
480.0830756089418
 20
346.3493168791782
 30
0.0
 10
479.5277152828108
 20
345.7939565530458
 30
0.0
 10
479.1385373303545
 20
345.6322968879207
 30
0.0
 10
478.7447352740965
 20
345.6322968878918
 30
0.0
  0
SPLINE
  5
2CE
330
1F
100
AcDbEntity
  8
1
  6
CONTINUOUS
 62
   155
100
AcDbSpline
210
0.0
220
0.0
230
1.0
 70
     8
 71
     3
 72
    22
 73
    18
 74
     0
 42
0.000000001
 43
0.0000000001
 40
0.0
 40
0.0
 40
0.0
 40
0.0
 40
0.0874179056876735
 40
0.11401502668835
 40
0.1406121476890265
 40
0.1938063896903794
 40
0.3001948736930853
 40
0.4065833576957912
 40
0.5129718416984971
 40
0.6193603257012029
 40
0.7257488097039089
 40
0.8321372937066147
 40
0.8587344147072911
 40
0.8853315357079675
 40
0.9385257777093206
 40
0.9385257777093206
 40
1.0
 40
1.0
 40
1.0
 40
1.0
 10
481.8183948180791
 20
351.1323578806267
 30
0.0
 10
481.6919994521276
 20
350.6621260610643
 30
0.0
 10
481.6029259324677
 20
350.0283919501747
 30
0.0
 10
481.5987060341964
 20
349.2443435973666
 30
0.0
 10
481.6334413204999
 20
348.6514483653276
 30
0.0
 10
481.9048940387507
 20
347.6397530053732
 30
0.0
 10
482.7951402041316
 20
346.4063447537146
 30
0.0
 10
484.3741391361951
 20
345.5104397251525
 30
0.0
 10
486.1664809568204
 20
345.2624085960347
 30
0.0
 10
487.9301698799731
 20
345.6702540483021
 30
0.0
 10
489.4152427004511
 20
346.7186223090779
 30
0.0
 10
490.0862373871483
 20
347.9148076548528
 30
0.0
 10
490.2634258507746
 20
348.7890184943773
 30
0.0
 10
490.2990515978194
 20
349.3817377942286
 30
0.0
 10
490.2843268304596
 20
349.8271002035046
 30
0.0
 10
490.2234024857614
 20
350.463442581725
 30
0.0
 10
490.1622500440618
 20
350.8019860422229
 30
0.0
 10
490.0723457926707
 20
351.1326471460258
 30
0.0
  0
SPLINE
  5
2CF
330
1F
100
AcDbEntity
  8
1
  6
CONTINUOUS
 62
   155
100
AcDbSpline
210
0.0
220
0.0
230
1.0
 70
     8
 71
     2
 72
    24
 73
    21
 74
     0
 42
0.000000001
 43
0.0000000001
 40
0.0
 40
0.0
 40
0.0
 40
0.0625
 40
0.0625
 40
0.125
 40
0.125
 40
0.25
 40
0.25
 40
0.375
 40
0.375
 40
0.5
 40
0.5
 40
0.625
 40
0.625
 40
0.75
 40
0.75
 40
0.875
 40
0.875
 40
0.9375
 40
0.9375
 40
1.0
 40
1.0
 40
1.0
 10
481.8183110355346
 20
351.1322133518686
 30
0.0
 10
481.6854464801625
 20
351.6259092565591
 30
0.0
 10
481.6338620982428
 20
352.1546747580762
 30
0.0
 10
481.5776266981989
 20
352.7311155023617
 30
0.0
 10
481.6128615063956
 20
353.2377179648677
 30
0.0
 10
481.6850930587126
 20
354.2762558240834
 30
0.0
 10
482.3138590722089
 20
355.1372748883763
 30
0.0
 10
482.9300256606968
 20
355.9810405628574
 30
0.0
 10
483.9133972000853
 20
356.4459213007179
 30
0.0
 10
484.8723189060978
 20
356.8992435826692
 30
0.0
 10
485.9432472127119
 20
356.8979355210437
 30
0.0
 10
487.0219211338026
 20
356.8966179987093
 30
0.0
 10
487.9720088575964
 20
356.4469182391309
 30
0.0
 10
488.9600834966536
 20
355.9792383433681
 30
0.0
 10
489.577143000969
 20
355.1347597391452
 30
0.0
 10
490.1831879995984
 20
354.3053550691587
 30
0.0
 10
490.2721661864504
 20
353.2850051392618
 30
0.0
 10
490.3157090873178
 20
352.7856805584904
 30
0.0
 10
490.2585452716013
 20
352.1686621317127
 30
0.0
 10
490.2087909335804
 20
351.6316205961504
 30
0.0
 10
490.072835479984
 20
351.1318133984799
 30
0.0
  0
SPLINE
  5
2D0
330
1F
100
AcDbEntity
  8
1
  6
CONTINUOUS
 62
   155
100
AcDbSpline
210
0.0
220
0.0
230
1.0
 70
    24
 71
     3
 72
     8
 73
     4
 74
     0
 42
0.000000001
 43
0.0000000001
 40
0.0
 40
0.0
 40
0.0
 40
0.0
 40
1.0
 40
1.0
 40
1.0
 40
1.0
 10
586.9919712996129
 20
351.1322968878918
 30
0.0
 10
586.9873699844286
 20
351.1322968878918
 30
0.0
 10
586.9827664903863
 20
351.1322968878918
 30
0.0
 10
586.9781608025077
 20
351.1322968878918
 30
0.0
  0
SPLINE
  5
2D1
330
1F
100
AcDbEntity
  8
1
  6
CONTINUOUS
 62
   155
100
AcDbSpline
210
0.0
220
0.0
230
1.0
 70
     8
 71
     3
 72
    22
 73
    18
 74
     0
 42
0.000000001
 43
0.0000000001
 40
-0.125
 40
-0.125
 40
0.0
 40
0.0
 40
0.1250000000000001
 40
0.1250000000000001
 40
0.2500000000000001
 40
0.2500000000000001
 40
0.3750000000000001
 40
0.3750000000000001
 40
0.5
 40
0.5
 40
0.625
 40
0.625
 40
0.7499999999999999
 40
0.7499999999999999
 40
0.875
 40
0.875
 40
1.0
 40
1.0
 40
1.125
 40
1.125
 10
415.9815132401454
 20
355.9008304282578
 30
0.0
 10
417.1079573080475
 20
355.9008304282578
 30
0.0
 10
417.6677111149319
 20
355.6906960632168
 30
0.0
 10
418.4642273539729
 20
354.9688071932728
 30
0.0
 10
418.6960849723744
 20
354.46149795927
 30
0.0
 10
418.6960849723744
 20
353.4405929288691
 30
0.0
 10
418.4642273539729
 20
352.9332836948664
 30
0.0
 10
417.667711114932
 20
352.2113948249224
 30
0.0
 10
417.1079573080475
 20
352.0012604598814
 30
0.0
 10
415.9815132401455
 20
352.0012604598814
 30
0.0
 10
415.4217594332609
 20
352.2113948249224
 30
0.0
 10
414.62524319422
 20
352.9332836948664
 30
0.0
 10
414.3933855758186
 20
353.4405929288691
 30
0.0
 10
414.3933855758185
 20
354.46149795927
 30
0.0
 10
414.62524319422
 20
354.9688071932728
 30
0.0
 10
415.421759433261
 20
355.6906960632168
 30
0.0
 10
415.9815132401454
 20
355.9008304282578
 30
0.0
 10
417.1079573080475
 20
355.9008304282578
 30
0.0
  0
SPLINE
  5
2D2
330
1F
100
AcDbEntity
  8
1
  6
CONTINUOUS
 62
   155
100
AcDbSpline
210
0.0
220
0.0
230
1.0
 70
     8
 71
     3
 72
    10
 73
     6
 74
     0
 42
0.000000001
 43
0.0000000001
 40
0.0
 40
0.0
 40
0.0
 40
0.0
 40
0.5
 40
0.5
 40
1.0
 40
1.0
 40
1.0
 40
1.0
 10
422.2447352740965
 20
355.1322968878917
 30
0.0
 10
422.2447352741294
 20
355.5260989441501
 30
0.0
 10
422.4063949392538
 20
355.9152768966055
 30
0.0
 10
422.9617552653795
 20
356.4706372227375
 30
0.0
 10
423.3509332178405
 20
356.6322968878632
 30
0.0
 10
423.7447352740965
 20
356.6322968878917
 30
0.0
  0
SPLINE
  5
2D3
330
1F
100
AcDbEntity
  8
1
  6
CONTINUOUS
 62
   155
100
AcDbSpline
210
0.0
220
0.0
230
1.0
 70
     8
 71
     3
 72
    10
 73
     6
 74
     0
 42
0.000000001
 43
0.0000000001
 40
0.0
 40
0.0
 40
0.0
 40
0.0
 40
0.5
 40
0.5
 40
1.0
 40
1.0
 40
1.0
 40
1.0
 10
422.20982514424
 20
355.1322968878917
 30
0.0
 10
422.2098251442865
 20
355.5352640647644
 30
0.0
 10
422.3752471826643
 20
355.9334995191251
 30
0.0
 10
422.9435326428618
 20
356.5017849793251
 30
0.0
 10
423.3417680972245
 20
356.6672070177182
 30
0.0
 10
423.7447352740965
 20
356.6672070177481
 30
0.0
  0
SPLINE
  5
2D4
330
1F
100
AcDbEntity
  8
1
  6
CONTINUOUS
 62
   155
100
AcDbSpline
210
0.0
220
0.0
230
1.0
 70
     8
 71
     3
 72
     8
 73
     4
 74
     0
 42
0.000000001
 43
0.0000000001
 40
0.0
 40
0.0
 40
0.0
 40
0.0
 40
1.0
 40
1.0
 40
1.0
 40
1.0
 10
493.3565067064427
 20
342.8836944749104
 30
0.0
 10
493.0754515644189
 20
342.9590029732443
 30
0.0
 10
492.826143411106
 20
343.1097149681567
 30
0.0
 10
492.626957449521
 20
343.3322968878917
 30
0.0
  0
SPLINE
  5
2D5
330
1F
100
AcDbEntity
  8
1
  6
CONTINUOUS
 62
   155
100
AcDbSpline
210
0.0
220
0.0
230
1.0
 70
     8
 71
     3
 72
     8
 73
     4
 74
     0
 42
0.000000001
 43
0.0000000001
 40
0.0
 40
0.0
 40
0.0
 40
0.0
 40
1.0
 40
1.0
 40
1.0
 40
1.0
 10
492.626957449521
 20
358.9322968878918
 30
0.0
 10
492.8261432864899
 20
359.1548786683735
 30
0.0
 10
493.0754467341191
 20
359.3055895082643
 30
0.0
 10
493.3565067064427
 20
359.3808993008731
 30
0.0
  0
SPLINE
  5
2D6
330
1F
100
AcDbEntity
  8
1
  6
CONTINUOUS
 62
   155
100
AcDbSpline
210
0.0
220
0.0
230
1.0
 70
     8
 71
     3
 72
     8
 73
     4
 74
     0
 42
0.000000001
 43
0.0000000001
 40
0.0
 40
0.0
 40
0.0
 40
0.0
 40
1.0
 40
1.0
 40
1.0
 40
1.0
 10
575.1329638417502
 20
359.3808993008731
 30
0.0
 10
575.414018983774
 20
359.3055908025393
 30
0.0
 10
575.6633271370869
 20
359.1548788076268
 30
0.0
 10
575.8625130986719
 20
358.9322968878918
 30
0.0
  0
SPLINE
  5
2D7
330
1F
100
AcDbEntity
  8
1
  6
CONTINUOUS
 62
   155
100
AcDbSpline
210
0.0
220
0.0
230
1.0
 70
     8
 71
     3
 72
    24
 73
    20
 74
     0
 42
0.000000001
 43
0.0000000001
 40
0.0
 40
0.0
 40
0.0
 40
0.0
 40
0.0370271183608143
 40
0.1296216014345434
 40
0.1296216014345434
 40
0.175918842971408
 40
0.1990674637398403
 40
0.2222160845082726
 40
0.3148105675820017
 40
0.4074050506557308
 40
0.4999995337294598
 40
0.5925940168031889
 40
0.685188499876918
 40
0.7777829829506471
 40
0.8240802244875116
 40
0.8472288452559439
 40
0.8703774660243762
 40
0.9629719490981052
 40
1.0
 40
1.0
 40
1.0
 40
1.0
 10
579.8984396843869
 20
351.132076877545
 30
0.0
 10
579.7846419081832
 20
350.9638493399452
 30
0.0
 10
579.4370135636201
 20
350.3467865157987
 30
0.0
 10
579.285410123235
 20
349.6561690867493
 30
0.0
 10
579.2854101232351
 20
348.9160042079896
 30
0.0
 10
579.3260215318215
 20
348.5459609426063
 30
0.0
 10
579.4582924275256
 20
348.0666843614476
 30
0.0
 10
579.7332708888785
 20
347.3689019747416
 30
0.0
 10
580.4270706484249
 20
346.4277928848501
 30
0.0
 10
581.8116026335537
 20
345.5893980525604
 30
0.0
 10
583.4447352716352
 20
345.2949465655343
 30
0.0
 10
585.0778679156416
 20
345.5893980525012
 30
0.0
 10
586.462402145038
 20
346.4278009657492
 30
0.0
 10
587.2332814122005
 20
347.4734440633559
 30
0.0
 10
587.5103286014322
 20
348.3040481009762
 30
0.0
 10
587.5905203144381
 20
348.7927542088447
 30
0.0
 10
587.6311361909404
 20
349.5328328045903
 30
0.0
 10
587.4524633956775
 20
350.3467673610211
 30
0.0
 10
587.1048287152222
 20
350.9638415528756
 30
0.0
 10
586.991026436528
 20
351.1320758376618
 30
0.0
  0
SPLINE
  5
2D8
330
1F
100
AcDbEntity
  8
1
  6
CONTINUOUS
 62
   155
100
AcDbSpline
210
0.0
220
0.0
230
1.0
 70
     8
 71
     3
 72
    10
 73
     6
 74
     0
 42
0.000000001
 43
0.0000000001
 40
0.0
 40
0.0
 40
0.0
 40
0.0
 40
0.5
 40
0.5
 40
1.0
 40
1.0
 40
1.0
 40
1.0
 10
480.2796454039529
 20
347.1322968878918
 30
0.0
 10
480.2796454039255
 20
346.7293297110188
 30
0.0
 10
480.1142233655291
 20
346.3310942566586
 30
0.0
 10
479.5459379053307
 20
345.7628087964582
 30
0.0
 10
479.1477024509687
 20
345.5973867580657
 30
0.0
 10
478.7447352740965
 20
345.5973867580354
 30
0.0
  0
SPLINE
  5
2D9
330
1F
100
AcDbEntity
  8
1
  6
CONTINUOUS
 62
   155
100
AcDbSpline
210
0.0
220
0.0
230
1.0
 70
     8
 71
     3
 72
    10
 73
     6
 74
     0
 42
0.000000001
 43
0.0000000001
 40
0.0
 40
0.0
 40
0.0
 40
0.0
 40
0.5
 40
0.5
 40
1.0
 40
1.0
 40
1.0
 40
1.0
 10
423.7447352740965
 20
345.5973867580354
 30
0.0
 10
423.3417680972246
 20
345.5973867580657
 30
0.0
 10
422.9435326428618
 20
345.7628087964582
 30
0.0
 10
422.3752471826643
 20
346.3310942566586
 30
0.0
 10
422.2098251442865
 20
346.7293297110189
 30
0.0
 10
422.20982514424
 20
347.1322968878918
 30
0.0
  0
SPLINE
  5
2DA
330
1F
100
AcDbEntity
  8
1
  6
CONTINUOUS
 62
   155
100
AcDbSpline
210
0.0
220
0.0
230
1.0
 70
    24
 71
     3
 72
    12
 73
     8
 74
     0
 42
0.000000001
 43
0.0000000001
 40
0.0
 40
0.0
 40
0.0
 40
0.0
 40
0.278718088050293
 40
0.278718088050293
 40
0.5574513104857383
 40
0.5574513104857383
 40
1.0
 40
1.0
 40
1.0
 40
1.0
 10
587.5710921242293
 20
351.1322968878918
 30
0.0
 10
587.5295316264679
 20
351.1322968878918
 30
0.0
 10
587.4854624017155
 20
351.1322968878918
 30
0.0
 10
587.3908133860363
 20
351.1322968878918
 30
0.0
 10
587.3402218680457
 20
351.1322968878918
 30
0.0
 10
587.1988322866955
 20
351.1322968878918
 30
0.0
 10
587.101907134952
 20
351.1322968878918
 30
0.0
 10
586.9908768953687
 20
351.1322968878918
 30
0.0
  0
SPLINE
  5
2DB
330
1F
100
AcDbEntity
  8
1
  6
CONTINUOUS
 62
   155
100
AcDbSpline
210
0.0
220
0.0
230
1.0
 70
     8
 71
     3
 72
    22
 73
    18
 74
     0
 42
0.000000001
 43
0.0000000001
 40
0.0
 40
0.0
 40
0.0
 40
0.0
 40
0.087417905687675
 40
0.1140150266883514
 40
0.1406121476890278
 40
0.1938063896903806
 40
0.3001948736930861
 40
0.4065833576957917
 40
0.5129718416984972
 40
0.6193603257012028
 40
0.7257488097039083
 40
0.8321372937066139
 40
0.8587344147072904
 40
0.8853315357079669
 40
0.9385257777093196
 40
0.9385257777093196
 40
1.0
 40
1.0
 40
1.0
 40
1.0
 10
420.6710757301138
 20
351.1322358951568
 30
0.0
 10
420.7974710960654
 20
351.6024677147192
 30
0.0
 10
420.8865446157253
 20
352.2362018256088
 30
0.0
 10
420.8907645139965
 20
353.0202501784169
 30
0.0
 10
420.856029227693
 20
353.6131454104559
 30
0.0
 10
420.5845765094422
 20
354.6248407704103
 30
0.0
 10
419.6943303440613
 20
355.8582490220689
 30
0.0
 10
418.1153314119978
 20
356.754154050631
 30
0.0
 10
416.3229895913726
 20
357.0021851797488
 30
0.0
 10
414.5593006682198
 20
356.5943397274814
 30
0.0
 10
413.0742278477418
 20
355.5459714667056
 30
0.0
 10
412.4032331610445
 20
354.3497861209307
 30
0.0
 10
412.2260446974183
 20
353.4755752814062
 30
0.0
 10
412.1904189503736
 20
352.8828559815549
 30
0.0
 10
412.2051437177333
 20
352.4374935722789
 30
0.0
 10
412.2660680624315
 20
351.8011511940585
 30
0.0
 10
412.3272205041311
 20
351.4626077335605
 30
0.0
 10
412.4171247555222
 20
351.1319466297576
 30
0.0
  0
SPLINE
  5
2DC
330
1F
100
AcDbEntity
  8
1
  6
CONTINUOUS
 62
   155
100
AcDbSpline
210
0.0
220
0.0
230
1.0
 70
    24
 71
     3
 72
    12
 73
     8
 74
     0
 42
0.000000001
 43
0.0000000001
 40
0.0
 40
0.0
 40
0.0
 40
0.0
 40
0.2787850476783907
 40
0.2787850476783907
 40
0.5575407040907856
 40
0.5575407040907856
 40
1.0
 40
1.0
 40
1.0
 40
1.0
 10
420.0908768953688
 20
351.1322968878918
 30
0.0
 10
420.160832679895
 20
351.1322968878918
 30
0.0
 10
420.225158057254
 20
351.1322968878919
 30
0.0
 10
420.3446277373374
 20
351.1322968878919
 30
0.0
 10
420.3997832670306
 20
351.1322968878918
 30
0.0
 10
420.5328497942288
 20
351.1322968878918
 30
0.0
 10
420.6051247281155
 20
351.1322968878918
 30
0.0
 10
420.6710921242293
 20
351.1322968878918
 30
0.0
  0
SPLINE
  5
2DD
330
1F
100
AcDbEntity
  8
1
  6
CONTINUOUS
 62
   155
100
AcDbSpline
210
0.0
220
0.0
230
1.0
 70
     8
 71
     3
 72
    22
 73
    18
 74
     0
 42
0.000000001
 43
0.0000000001
 40
0.0
 40
0.0
 40
0.0
 40
0.0
 40
0.125
 40
0.125
 40
0.25
 40
0.25
 40
0.3749999999999999
 40
0.3749999999999999
 40
0.4999999999999999
 40
0.4999999999999999
 40
0.6249999999999999
 40
0.6249999999999999
 40
0.7499999999999999
 40
0.7499999999999999
 40
0.875
 40
0.875
 40
1.0
 40
1.0
 40
1.0
 40
1.0
 10
420.0918219887526
 20
351.1320760212142
 30
0.0
 10
420.475889208747
 20
351.7001568310849
 30
0.0
 10
420.6895295184101
 20
352.3618653594758
 30
0.0
 10
420.7183431000622
 20
353.6940923291152
 30
0.0
 10
420.533478946823
 20
354.3628803746449
 30
0.0
 10
419.8150617906927
 20
355.5254509018948
 30
0.0
 10
419.2824419215691
 20
356.017723350333
 30
0.0
 10
418.0140132822861
 20
356.6914895823306
 30
0.0
 10
417.2798520418176
 20
356.8721082280718
 30
0.0
 10
415.8096198493513
 20
356.872108443155
 30
0.0
 10
415.0754585445457
 20
356.6914900122177
 30
0.0
 10
413.8070296652644
 20
356.0177241513422
 30
0.0
 10
413.2744096207912
 20
355.52545185874
 30
0.0
 10
412.5559920505482
 20
354.3628815416876
 30
0.0
 10
412.3711276590839
 20
353.6940935502462
 30
0.0
 10
412.3999407661909
 20
352.3618665721764
 30
0.0
 10
412.6135808401505
 20
351.7001579812779
 30
0.0
 10
412.9976478577921
 20
351.1320770590353
 30
0.0
  0
SPLINE
  5
2DE
330
1F
100
AcDbEntity
  8
1
  6
CONTINUOUS
 62
   155
100
AcDbSpline
210
0.0
220
0.0
230
1.0
 70
    24
 71
     3
 72
     8
 73
     4
 74
     0
 42
0.000000001
 43
0.0000000001
 40
0.0
 40
0.0
 40
0.0
 40
0.0
 40
1.0
 40
1.0
 40
1.0
 40
1.0
 10
420.0781608025077
 20
351.1322968878918
 30
0.0
 10
420.0827664903857
 20
351.1322968878918
 30
0.0
 10
420.0873699844274
 20
351.1322968878918
 30
0.0
 10
420.0919712996113
 20
351.1322968878918
 30
0.0
  0
SPLINE
  5
2DF
330
1F
100
AcDbEntity
  8
1
  6
CONTINUOUS
 62
   155
100
AcDbSpline
210
0.0
220
0.0
230
1.0
 70
    24
 71
     3
 72
    16
 73
    12
 74
     0
 42
0.000000001
 43
0.0000000001
 40
0.0
 40
0.0
 40
0.0
 40
0.0
 40
0.2500000000000039
 40
0.2500000000000039
 40
0.5000000000000078
 40
0.5000000000000078
 40
0.625000000000007
 40
0.625000000000007
 40
0.7500000000000063
 40
0.7500000000000063
 40
1.0
 40
1.0
 40
1.0
 40
1.0
 10
413.0113097456853
 20
351.1322968878918
 30
0.0
 10
413.5268734795942
 20
351.1322968878918
 30
0.0
 10
414.0620318071304
 20
351.1322968878918
 30
0.0
 10
415.2245083155628
 20
351.1322968878918
 30
0.0
 10
415.8713142030437
 20
351.1322968878918
 30
0.0
 10
416.8508369867811
 20
351.1322968878918
 30
0.0
 10
417.1817115262251
 20
351.1322968878918
 30
0.0
 10
417.8133030831897
 20
351.1322968878918
 30
0.0
 10
418.1209503490367
 20
351.1322968878918
 30
0.0
 10
419.0141437156668
 20
351.1322968878918
 30
0.0
 10
419.556795837353
 20
351.1322968878918
 30
0.0
 10
420.0781608025077
 20
351.1322968878918
 30
0.0
  0
SPLINE
  5
2E0
330
1F
100
AcDbEntity
  8
1
  6
CONTINUOUS
 62
   155
100
AcDbSpline
210
0.0
220
0.0
230
1.0
 70
     8
 71
     3
 72
    56
 73
    52
 74
     0
 42
0.000000001
 43
0.0000000001
 40
-0.03125
 40
-0.015625
 40
0.0
 40
0.0
 40
0.00234375
 40
0.0625
 40
0.125
 40
0.1875
 40
0.21875
 40
0.2265625
 40
0.23046875
 40
0.234375
 40
0.2421875
 40
0.25
 40
0.265625
 40
0.28125
 40
0.296875
 40
0.3125
 40
0.328125
 40
0.34375
 40
0.375
 40
0.390625
 40
0.40625
 40
0.421875
 40
0.4375
 40
0.453125
 40
0.4658203125
 40
0.46875
 40
0.47265625
 40
0.4765625
 40
0.484375
 40
0.5
 40
0.625
 40
0.65625
 40
0.6875
 40
0.6953125
 40
0.703125
 40
0.70703125
 40
0.7109375
 40
0.71875
 40
0.75
 40
0.78125
 40
0.796875
 40
0.8125
 40
0.84375
 40
0.859375
 40
0.875
 40
0.890625
 40
0.90625
 40
0.9375
 40
0.96875
 40
0.984375
 40
1.0
 40
1.0
 40
1.00234375
 40
1.0625
 10
488.0451571914217
 20
353.5257406618722
 30
0.0
 10
488.0629311842051
 20
353.6170976850661
 30
0.0
 10
488.0853886099553
 20
353.7350236245849
 30
0.0
 10
488.1059778048844
 20
353.9788459302021
 30
0.0
 10
488.0640312169135
 20
354.343871207053
 30
0.0
 10
487.9647841355404
 20
354.637981712647
 30
0.0
 10
487.870803103737
 20
354.8195843846268
 30
0.0
 10
487.8291926405361
 20
354.8892482550756
 30
0.0
 10
487.8080586504477
 20
354.923674197376
 30
0.0
 10
487.7802112358501
 20
354.9665985606208
 30
0.0
 10
487.7277302663945
 20
355.0407560610001
 30
0.0
 10
487.6216549155624
 20
355.1760612144278
 30
0.0
 10
487.4768507829708
 20
355.3256337939959
 30
0.0
 10
487.2653258733626
 20
355.4962648831967
 30
0.0
 10
487.0186305770234
 20
355.6463733679812
 30
0.0
 10
486.7415718742429
 20
355.7683355767138
 30
0.0
 10
486.4389567453111
 20
355.8545278377583
 30
0.0
 10
486.0143531988548
 20
355.9158962156944
 30
0.0
 10
485.5775123810596
 20
355.8881405786365
 30
0.0
 10
485.1725322709348
 20
355.7767472570499
 30
0.0
 10
484.8924242213488
 20
355.6577516087113
 30
0.0
 10
484.643639883943
 20
355.5096734883396
 30
0.0
 10
484.4301474708495
 20
355.342671064175
 30
0.0
 10
484.2552777726864
 20
355.1601509632071
 30
0.0
 10
484.1574987933431
 20
355.0352600227207
 30
0.0
 10
484.1105192093775
 20
354.9681609061644
 30
0.0
 10
484.0883569538704
 20
354.9344077170867
 30
0.0
 10
484.0629847015072
 20
354.8937494758438
 30
0.0
 10
484.0385749995316
 20
354.8531421763406
 30
0.0
 10
483.8919698577939
 20
354.5890326955239
 30
0.0
 10
483.7987640584366
 20
354.2583439492602
 30
0.0
 10
483.7926566674149
 20
353.8901464585434
 30
0.0
 10
483.8072299790934
 20
353.7405649295115
 30
0.0
 10
483.8151267465148
 20
353.6776158484752
 30
0.0
 10
483.8222674215966
 20
353.6378561225713
 30
0.0
 10
483.8376588892715
 20
353.5631768126931
 30
0.0
 10
483.8580248164869
 20
353.475658623082
 30
0.0
 10
483.9284533566113
 20
353.2469595490323
 30
0.0
 10
484.1348980616953
 20
352.8419242650381
 30
0.0
 10
484.5139542644416
 20
352.471869925634
 30
0.0
 10
484.8806919420571
 20
352.2493256223848
 30
0.0
 10
485.2752113828265
 20
352.0810071113906
 30
0.0
 10
485.6895833976384
 20
352.0018668088871
 30
0.0
 10
486.0777631232479
 20
352.0000622525999
 30
0.0
 10
486.3819277560801
 20
352.0360994208074
 30
0.0
 10
486.6879130044741
 20
352.1150445978154
 30
0.0
 10
487.0838035210544
 20
352.2774734456032
 30
0.0
 10
487.5287783230825
 20
352.5876217775002
 30
0.0
 10
487.8415388439055
 20
352.9990596181033
 30
0.0
 10
487.9972045668455
 20
353.3494368530062
 30
0.0
 10
488.0451571914217
 20
353.5257406618722
 30
0.0
 10
488.0629311842051
 20
353.6170976850661
 30
0.0
  0
SPLINE
  5
2E1
330
1F
100
AcDbEntity
  8
1
  6
CONTINUOUS
 62
   155
100
AcDbSpline
210
0.0
220
0.0
230
1.0
 70
     8
 71
     3
 72
    10
 73
     6
 74
     0
 42
0.000000001
 43
0.0000000001
 40
0.0
 40
0.0
 40
0.0
 40
0.0
 40
0.5
 40
0.5
 40
1.0
 40
1.0
 40
1.0
 40
1.0
 10
423.7447352740965
 20
345.6322968878918
 30
0.0
 10
423.3509332178403
 20
345.6322968879207
 30
0.0
 10
422.9617552653795
 20
345.7939565530458
 30
0.0
 10
422.4063949392538
 20
346.3493168791782
 30
0.0
 10
422.2447352741294
 20
346.7384948316333
 30
0.0
 10
422.2447352740965
 20
347.1322968878918
 30
0.0
  0
SPLINE
  5
2E2
330
1F
100
AcDbEntity
  8
1
  6
CONTINUOUS
 62
   155
100
AcDbSpline
210
0.0
220
0.0
230
1.0
 70
    24
 71
     3
 72
     8
 73
     4
 74
     0
 42
0.000000001
 43
0.0000000001
 40
0.0
 40
0.0
 40
0.0
 40
0.0
 40
1.0
 40
1.0
 40
1.0
 40
1.0
 10
412.9974992485795
 20
351.1322968878918
 30
0.0
 10
413.0021005637641
 20
351.1322968878918
 30
0.0
 10
413.0067040578065
 20
351.1322968878918
 30
0.0
 10
413.0113097456853
 20
351.1322968878918
 30
0.0
  0
SPLINE
  5
2E3
330
1F
100
AcDbEntity
  8
1
  6
CONTINUOUS
 62
   155
100
AcDbSpline
210
0.0
220
0.0
230
1.0
 70
    24
 71
     3
 72
     8
 73
     4
 74
     0
 42
0.000000001
 43
0.0000000001
 40
0.0
 40
0.0
 40
0.0
 40
0.0
 40
1.0
 40
1.0
 40
1.0
 40
1.0
 10
489.4919712996133
 20
351.1322968878918
 30
0.0
 10
489.4873699844288
 20
351.1322968878918
 30
0.0
 10
489.4827664903864
 20
351.1322968878918
 30
0.0
 10
489.4781608025077
 20
351.1322968878918
 30
0.0
  0
SPLINE
  5
2E4
330
1F
100
AcDbEntity
  8
1
  6
CONTINUOUS
 62
   155
100
AcDbSpline
210
0.0
220
0.0
230
1.0
 70
     8
 71
     3
 72
    22
 73
    18
 74
     0
 42
0.000000001
 43
0.0000000001
 40
-0.125
 40
-0.125
 40
0.0
 40
0.0
 40
0.1250000000000001
 40
0.1250000000000001
 40
0.2500000000000001
 40
0.2500000000000001
 40
0.3750000000000001
 40
0.3750000000000001
 40
0.5
 40
0.5
 40
0.625
 40
0.625
 40
0.7499999999999999
 40
0.7499999999999999
 40
0.875
 40
0.875
 40
1.0
 40
1.0
 40
1.125
 40
1.125
 10
582.8815132401454
 20
355.9008304282578
 30
0.0
 10
584.0079573080475
 20
355.9008304282578
 30
0.0
 10
584.567711114932
 20
355.6906960632168
 30
0.0
 10
585.3642273539729
 20
354.9688071932728
 30
0.0
 10
585.5960849723743
 20
354.46149795927
 30
0.0
 10
585.5960849723743
 20
353.4405929288691
 30
0.0
 10
585.3642273539729
 20
352.9332836948664
 30
0.0
 10
584.567711114932
 20
352.2113948249224
 30
0.0
 10
584.0079573080475
 20
352.0012604598814
 30
0.0
 10
582.8815132401454
 20
352.0012604598814
 30
0.0
 10
582.321759433261
 20
352.2113948249224
 30
0.0
 10
581.52524319422
 20
352.9332836948664
 30
0.0
 10
581.2933855758185
 20
353.4405929288691
 30
0.0
 10
581.2933855758185
 20
354.46149795927
 30
0.0
 10
581.52524319422
 20
354.9688071932728
 30
0.0
 10
582.3217594332609
 20
355.6906960632168
 30
0.0
 10
582.8815132401454
 20
355.9008304282578
 30
0.0
 10
584.0079573080475
 20
355.9008304282578
 30
0.0
  0
SPLINE
  5
2E5
330
1F
100
AcDbEntity
  8
1
  6
CONTINUOUS
 62
   155
100
AcDbSpline
210
0.0
220
0.0
230
1.0
 70
    24
 71
     3
 72
     8
 73
     4
 74
     0
 42
0.000000001
 43
0.0000000001
 40
0.0
 40
0.0
 40
0.0
 40
0.0
 40
1.0
 40
1.0
 40
1.0
 40
1.0
 10
579.9113097456852
 20
351.1322968878918
 30
0.0
 10
579.9067040578072
 20
351.1322968878918
 30
0.0
 10
579.9021005637657
 20
351.1322968878918
 30
0.0
 10
579.8974992485819
 20
351.1322968878918
 30
0.0
  0
SPLINE
  5
2E6
330
1F
100
AcDbEntity
  8
1
  6
CONTINUOUS
 62
   155
100
AcDbSpline
210
0.0
220
0.0
230
1.0
 70
    24
 71
     3
 72
    16
 73
    12
 74
     0
 42
0.000000001
 43
0.0000000001
 40
0.0
 40
0.0
 40
0.0
 40
0.0
 40
0.2499999999999993
 40
0.2499999999999993
 40
0.4999999999999987
 40
0.4999999999999987
 40
0.6249999999999983
 40
0.6249999999999983
 40
0.749999999999998
 40
0.749999999999998
 40
1.0
 40
1.0
 40
1.0
 40
1.0
 10
586.9781608025077
 20
351.1322968878918
 30
0.0
 10
586.4625970685987
 20
351.1322968878918
 30
0.0
 10
585.9274387410626
 20
351.1322968878918
 30
0.0
 10
584.7649622326302
 20
351.1322968878918
 30
0.0
 10
584.1181563451493
 20
351.1322968878918
 30
0.0
 10
583.1386335614118
 20
351.1322968878918
 30
0.0
 10
582.8077590219677
 20
351.1322968878918
 30
0.0
 10
582.1761674650032
 20
351.1322968878918
 30
0.0
 10
581.8685201991563
 20
351.1322968878918
 30
0.0
 10
580.9753268325262
 20
351.1322968878918
 30
0.0
 10
580.4326747108399
 20
351.1322968878918
 30
0.0
 10
579.9113097456852
 20
351.1322968878918
 30
0.0
  0
SPLINE
  5
2E7
330
1F
100
AcDbEntity
  8
1
  6
CONTINUOUS
 62
   155
100
AcDbSpline
210
0.0
220
0.0
230
1.0
 70
     8
 71
     3
 72
    56
 73
    52
 74
     0
 42
0.000000001
 43
0.0000000001
 40
-0.03125
 40
-0.015625
 40
0.0
 40
0.0
 40
0.00234375
 40
0.0625
 40
0.125
 40
0.1875
 40
0.21875
 40
0.2265625
 40
0.23046875
 40
0.234375
 40
0.2421875
 40
0.25
 40
0.265625
 40
0.28125
 40
0.296875
 40
0.3125
 40
0.328125
 40
0.34375
 40
0.375
 40
0.390625
 40
0.40625
 40
0.421875
 40
0.4375
 40
0.453125
 40
0.4658203125
 40
0.46875
 40
0.47265625
 40
0.4765625
 40
0.484375
 40
0.5
 40
0.625
 40
0.65625
 40
0.6875
 40
0.6953125
 40
0.703125
 40
0.70703125
 40
0.7109375
 40
0.71875
 40
0.75
 40
0.78125
 40
0.796875
 40
0.8125
 40
0.84375
 40
0.859375
 40
0.875
 40
0.890625
 40
0.90625
 40
0.9375
 40
0.96875
 40
0.984375
 40
1.0
 40
1.0
 40
1.00234375
 40
1.0625
 10
414.4443133567713
 20
348.7388531139113
 30
0.0
 10
414.4265393639878
 20
348.6474960907174
 30
0.0
 10
414.4040819382376
 20
348.5295701511986
 30
0.0
 10
414.3834927433085
 20
348.2857478455814
 30
0.0
 10
414.4254393312793
 20
347.9207225687305
 30
0.0
 10
414.5246864126525
 20
347.6266120631365
 30
0.0
 10
414.6186674444559
 20
347.4450093911568
 30
0.0
 10
414.6602779076568
 20
347.3753455207079
 30
0.0
 10
414.6814118977452
 20
347.3409195784075
 30
0.0
 10
414.7092593123428
 20
347.2979952151628
 30
0.0
 10
414.7617402817984
 20
347.2238377147834
 30
0.0
 10
414.8678156326304
 20
347.0885325613557
 30
0.0
 10
415.0126197652222
 20
346.9389599817876
 30
0.0
 10
415.2241446748303
 20
346.7683288925869
 30
0.0
 10
415.4708399711695
 20
346.6182204078023
 30
0.0
 10
415.74789867395
 20
346.4962581990698
 30
0.0
 10
416.0505138028818
 20
346.4100659380252
 30
0.0
 10
416.4751173493381
 20
346.3486975600891
 30
0.0
 10
416.9119581671332
 20
346.376453197147
 30
0.0
 10
417.316938277258
 20
346.4878465187336
 30
0.0
 10
417.5970463268441
 20
346.6068421670722
 30
0.0
 10
417.8458306642499
 20
346.7549202874439
 30
0.0
 10
418.0593230773434
 20
346.9219227116085
 30
0.0
 10
418.2341927755065
 20
347.1044428125764
 30
0.0
 10
418.3319717548499
 20
347.2293337530628
 30
0.0
 10
418.3789513388155
 20
347.2964328696191
 30
0.0
 10
418.4011135943225
 20
347.3301860586968
 30
0.0
 10
418.4264858466858
 20
347.3708442999397
 30
0.0
 10
418.4508955486613
 20
347.4114515994429
 30
0.0
 10
418.597500690399
 20
347.6755610802596
 30
0.0
 10
418.6907064897562
 20
348.0062498265233
 30
0.0
 10
418.696813880778
 20
348.3744473172401
 30
0.0
 10
418.6822405690995
 20
348.524028846272
 30
0.0
 10
418.674343801678
 20
348.5869779273083
 30
0.0
 10
418.6672031265963
 20
348.6267376532122
 30
0.0
 10
418.6518116589214
 20
348.7014169630904
 30
0.0
 10
418.631445731706
 20
348.7889351527015
 30
0.0
 10
418.5610171915816
 20
349.0176342267512
 30
0.0
 10
418.3545724864976
 20
349.4226695107454
 30
0.0
 10
417.9755162837513
 20
349.7927238501495
 30
0.0
 10
417.6087786061357
 20
350.0152681533987
 30
0.0
 10
417.2142591653665
 20
350.1835866643929
 30
0.0
 10
416.7998871505545
 20
350.2627269668964
 30
0.0
 10
416.411707424945
 20
350.2645315231836
 30
0.0
 10
416.1075427921128
 20
350.2284943549761
 30
0.0
 10
415.8015575437188
 20
350.1495491779681
 30
0.0
 10
415.4056670271384
 20
349.9871203301803
 30
0.0
 10
414.9606922251104
 20
349.6769719982833
 30
0.0
 10
414.6479317042874
 20
349.2655341576802
 30
0.0
 10
414.4922659813474
 20
348.9151569227773
 30
0.0
 10
414.4443133567713
 20
348.7388531139113
 30
0.0
 10
414.4265393639878
 20
348.6474960907174
 30
0.0
  0
SPLINE
  5
2E8
330
1F
100
AcDbEntity
  8
1
  6
CONTINUOUS
 62
   155
100
AcDbSpline
210
0.0
220
0.0
230
1.0
 70
     8
 71
     3
 72
    22
 73
    18
 74
     0
 42
0.000000001
 43
0.0000000001
 40
0.0
 40
0.0
 40
0.0
 40
0.0
 40
0.125
 40
0.125
 40
0.25
 40
0.25
 40
0.375
 40
0.375
 40
0.5
 40
0.5
 40
0.625
 40
0.625
 40
0.75
 40
0.75
 40
0.875
 40
0.875
 40
1.0
 40
1.0
 40
1.0
 40
1.0
 10
482.3976485594403
 20
351.1325177545693
 30
0.0
 10
482.0135813394459
 20
350.5644369446985
 30
0.0
 10
481.7999410297828
 20
349.9027284163078
 30
0.0
 10
481.7711274481308
 20
348.5705014466682
 30
0.0
 10
481.9559916013699
 20
347.9017134011386
 30
0.0
 10
482.6744087575002
 20
346.7391428738887
 30
0.0
 10
483.2070286266239
 20
346.2468704254504
 30
0.0
 10
484.4754572659068
 20
345.5731041934529
 30
0.0
 10
485.2096185063753
 20
345.3924855477117
 30
0.0
 10
486.6798506988416
 20
345.3924853326285
 30
0.0
 10
487.4140120036472
 20
345.5731037635658
 30
0.0
 10
488.6824408829285
 20
346.2468696244413
 30
0.0
 10
489.2150609274017
 20
346.7391419170435
 30
0.0
 10
489.9334784976447
 20
347.901712234096
 30
0.0
 10
490.118342889109
 20
348.5705002255373
 30
0.0
 10
490.089529782002
 20
349.9027272036071
 30
0.0
 10
489.8758897080424
 20
350.5644357945056
 30
0.0
 10
489.4918226904008
 20
351.1325167167482
 30
0.0
  0
SPLINE
  5
2E9
330
1F
100
AcDbEntity
  8
1
  6
CONTINUOUS
 62
   155
100
AcDbSpline
210
0.0
220
0.0
230
1.0
 70
    24
 71
     3
 72
    12
 73
     8
 74
     0
 42
0.000000001
 43
0.0000000001
 40
0.0
 40
0.0
 40
0.0
 40
0.0
 40
0.2787822283942638
 40
0.2787822283942638
 40
0.5575232434433114
 40
0.5575232434433114
 40
1.0
 40
1.0
 40
1.0
 40
1.0
 10
579.8985885220894
 20
351.1322968878918
 30
0.0
 10
579.8278427757554
 20
351.1322968878918
 30
0.0
 10
579.7633082838561
 20
351.1322968878915
 30
0.0
 10
579.6441107089329
 20
351.1322968878915
 30
0.0
 10
579.5894449641103
 20
351.1322968878918
 30
0.0
 10
579.4574081001712
 20
351.1322968878918
 30
0.0
 10
579.3855462679209
 20
351.1322968878918
 30
0.0
 10
579.3170295345415
 20
351.1322968878918
 30
0.0
  0
SPLINE
  5
2EA
330
1F
100
AcDbEntity
  8
1
  6
CONTINUOUS
 62
   155
100
AcDbSpline
210
0.0
220
0.0
230
1.0
 70
    24
 71
     3
 72
    12
 73
     8
 74
     0
 42
0.000000001
 43
0.0000000001
 40
0.0
 40
0.0
 40
0.0
 40
0.0
 40
0.2787850476783953
 40
0.2787850476783953
 40
0.5575407040907894
 40
0.5575407040907894
 40
1.0
 40
1.0
 40
1.0
 40
1.0
 10
482.3985936528242
 20
351.1322968878918
 30
0.0
 10
482.328637868298
 20
351.1322968878918
 30
0.0
 10
482.2643124909388
 20
351.1322968878916
 30
0.0
 10
482.1448428108555
 20
351.1322968878916
 30
0.0
 10
482.0896872811624
 20
351.1322968878918
 30
0.0
 10
481.9566207539641
 20
351.1322968878918
 30
0.0
 10
481.8843458200774
 20
351.1322968878918
 30
0.0
 10
481.8183784239637
 20
351.1322968878918
 30
0.0
  0
SPLINE
  5
2EB
330
1F
100
AcDbEntity
  8
1
  6
CONTINUOUS
 62
   155
100
AcDbSpline
210
0.0
220
0.0
230
1.0
 70
     8
 71
     3
 72
    24
 73
    20
 74
     0
 42
0.000000001
 43
0.0000000001
 40
0.0
 40
0.0
 40
0.0
 40
0.0
 40
0.0370271181295641
 40
0.1296216012060719
 40
0.1296216012060719
 40
0.1759188427443257
 40
0.1990674635134526
 40
0.2222160842825796
 40
0.3148105673590874
 40
0.4074050504355953
 40
0.4999995335121031
 40
0.5925940165886109
 40
0.6851884996651187
 40
0.7777829827416266
 40
0.8240802242798805
 40
0.8472288450490074
 40
0.8703774658181345
 40
0.9629719488946422
 40
1.0
 40
1.0
 40
1.0
 40
1.0
 10
489.4910308659484
 20
351.1325169014056
 30
0.0
 10
489.6048286412561
 20
351.3007444380506
 30
0.0
 10
489.9524569848446
 20
351.9178072612228
 30
0.0
 10
490.1040604249578
 20
352.6084246890342
 30
0.0
 10
490.1040604249578
 20
353.3485895677939
 30
0.0
 10
490.0634490163714
 20
353.7186328331772
 30
0.0
 10
489.9311781206673
 20
354.1979094143359
 30
0.0
 10
489.6561996593144
 20
354.8956918010419
 30
0.0
 10
488.962399899768
 20
355.8368008909334
 30
0.0
 10
487.5778679146392
 20
356.6751957232231
 30
0.0
 10
485.9447352765577
 20
356.9696472102492
 30
0.0
 10
484.3116026325513
 20
356.6751957232823
 30
0.0
 10
482.9270684031548
 20
355.8367928100344
 30
0.0
 10
482.1561891359924
 20
354.7911497124276
 30
0.0
 10
481.8791419467607
 20
353.9605456748073
 30
0.0
 10
481.7989502337548
 20
353.4718395669389
 30
0.0
 10
481.7583343572525
 20
352.7317609711932
 30
0.0
 10
481.9370071527521
 20
351.9178264136843
 30
0.0
 10
482.284641834056
 20
351.3007522209813
 30
0.0
 10
482.3984441135306
 20
351.1325179353636
 30
0.0
  0
SPLINE
  5
2EC
330
1F
100
AcDbEntity
  8
1
  6
CONTINUOUS
 62
   155
100
AcDbSpline
210
0.0
220
0.0
230
1.0
 70
     8
 71
     3
 72
    22
 73
    18
 74
     0
 42
0.000000001
 43
0.0000000001
 40
-0.125
 40
-0.125
 40
0.0
 40
0.0
 40
0.1250000000000001
 40
0.1250000000000001
 40
0.2500000000000001
 40
0.2500000000000001
 40
0.3750000000000001
 40
0.3750000000000001
 40
0.5
 40
0.5
 40
0.625
 40
0.625
 40
0.7499999999999999
 40
0.7499999999999999
 40
0.875
 40
0.875
 40
1.0
 40
1.0
 40
1.125
 40
1.125
 10
486.5079573080475
 20
346.3637633475257
 30
0.0
 10
485.3815132401454
 20
346.3637633475257
 30
0.0
 10
484.8217594332609
 20
346.5738977125667
 30
0.0
 10
484.02524319422
 20
347.2957865825107
 30
0.0
 10
483.7933855758185
 20
347.8030958165135
 30
0.0
 10
483.7933855758185
 20
348.8240008469144
 30
0.0
 10
484.02524319422
 20
349.3313100809171
 30
0.0
 10
484.821759433261
 20
350.0531989508611
 30
0.0
 10
485.3815132401454
 20
350.2633333159021
 30
0.0
 10
486.5079573080475
 20
350.2633333159021
 30
0.0
 10
487.0677111149319
 20
350.0531989508611
 30
0.0
 10
487.8642273539728
 20
349.3313100809171
 30
0.0
 10
488.0960849723743
 20
348.8240008469144
 30
0.0
 10
488.0960849723743
 20
347.8030958165135
 30
0.0
 10
487.8642273539729
 20
347.2957865825107
 30
0.0
 10
487.0677111149319
 20
346.5738977125667
 30
0.0
 10
486.5079573080475
 20
346.3637633475257
 30
0.0
 10
485.3815132401454
 20
346.3637633475257
 30
0.0
  0
SPLINE
  5
2ED
330
1F
100
AcDbEntity
  8
1
  6
CONTINUOUS
 62
   155
100
AcDbSpline
210
0.0
220
0.0
230
1.0
 70
    24
 71
     3
 72
    12
 73
     8
 74
     0
 42
0.000000001
 43
0.0000000001
 40
0.0
 40
0.0
 40
0.0
 40
0.0
 40
0.2786820606339768
 40
0.2786820606339768
 40
0.5573870278135794
 40
0.5573870278135794
 40
1.0
 40
1.0
 40
1.0
 40
1.0
 10
490.0724410136514
 20
351.1322968878918
 30
0.0
 10
490.0292821714409
 20
351.1322968878918
 30
0.0
 10
489.9848164303478
 20
351.1322968878918
 30
0.0
 10
489.8902799477408
 20
351.1322968878918
 30
0.0
 10
489.8402179105431
 20
351.1322968878918
 30
0.0
 10
489.6998589300201
 20
351.1322968878918
 30
0.0
 10
489.6031825409632
 20
351.1322968878918
 30
0.0
 10
489.4908820261035
 20
351.1322968878918
 30
0.0
  0
SPLINE
  5
2EE
330
1F
100
AcDbEntity
  8
1
  6
CONTINUOUS
 62
   155
100
AcDbSpline
210
0.0
220
0.0
230
1.0
 70
    24
 71
     3
 72
    16
 73
    12
 74
     0
 42
0.000000001
 43
0.0000000001
 40
0.0
 40
0.0
 40
0.0
 40
0.0
 40
0.2500000000000006
 40
0.2500000000000006
 40
0.5000000000000012
 40
0.5000000000000012
 40
0.6250000000000016
 40
0.6250000000000016
 40
0.7500000000000018
 40
0.7500000000000018
 40
1.0
 40
1.0
 40
1.0
 40
1.0
 10
489.4781608025077
 20
351.1322968878918
 30
0.0
 10
488.9625970685987
 20
351.1322968878918
 30
0.0
 10
488.4274387410625
 20
351.1322968878918
 30
0.0
 10
487.2649622326302
 20
351.1322968878918
 30
0.0
 10
486.6181563451493
 20
351.1322968878918
 30
0.0
 10
485.6386335614117
 20
351.1322968878918
 30
0.0
 10
485.3077590219677
 20
351.1322968878918
 30
0.0
 10
484.6761674650032
 20
351.1322968878918
 30
0.0
 10
484.3685201991563
 20
351.1322968878918
 30
0.0
 10
483.4753268325262
 20
351.1322968878918
 30
0.0
 10
482.9326747108399
 20
351.1322968878918
 30
0.0
 10
482.4113097456852
 20
351.1322968878918
 30
0.0
  0
SPLINE
  5
2EF
330
1F
100
AcDbEntity
  8
1
  6
CONTINUOUS
 62
   155
100
AcDbSpline
210
0.0
220
0.0
230
1.0
 70
     8
 71
     3
 72
    24
 73
    20
 74
     0
 42
0.000000001
 43
0.0000000001
 40
0.0
 40
0.0
 40
0.0
 40
0.0
 40
0.0370271181295627
 40
0.1296216012060703
 40
0.1296216012060703
 40
0.1759188427443241
 40
0.1990674635134511
 40
0.222216084282578
 40
0.3148105673590856
 40
0.4074050504355933
 40
0.4999995335121009
 40
0.5925940165886086
 40
0.6851884996651162
 40
0.7777829827416239
 40
0.8240802242798777
 40
0.8472288450490046
 40
0.8703774658181316
 40
0.962971948894639
 40
1.0
 40
1.0
 40
1.0
 40
1.0
 10
412.9984396822445
 20
351.132076874378
 30
0.0
 10
412.8846419069368
 20
350.9638493377329
 30
0.0
 10
412.5370135633483
 20
350.3467865145607
 30
0.0
 10
412.3854101232351
 20
349.6561690867493
 30
0.0
 10
412.3854101232351
 20
348.9160042079896
 30
0.0
 10
412.4260215318216
 20
348.5459609426063
 30
0.0
 10
412.5582924275257
 20
348.0666843614476
 30
0.0
 10
412.8332708888785
 20
347.3689019747416
 30
0.0
 10
413.5270706484249
 20
346.4277928848501
 30
0.0
 10
414.9116026335537
 20
345.5893980525604
 30
0.0
 10
416.5447352716352
 20
345.2949465655343
 30
0.0
 10
418.1778679156416
 20
345.5893980525012
 30
0.0
 10
419.562402145038
 20
346.4278009657492
 30
0.0
 10
420.3332814122006
 20
347.4734440633559
 30
0.0
 10
420.6103286014322
 20
348.3040481009762
 30
0.0
 10
420.6905203144381
 20
348.7927542088447
 30
0.0
 10
420.7311361909404
 20
349.5328328045903
 30
0.0
 10
420.5524633954408
 20
350.3467673620992
 30
0.0
 10
420.2048287141369
 20
350.9638415548022
 30
0.0
 10
420.0910264346622
 20
351.13207584042
 30
0.0
  0
SPLINE
  5
2F0
330
1F
100
AcDbEntity
  8
1
  6
CONTINUOUS
 62
   155
100
AcDbSpline
210
0.0
220
0.0
230
1.0
 70
     8
 71
     3
 72
    22
 73
    18
 74
     0
 42
0.000000001
 43
0.0000000001
 40
0.0
 40
0.0
 40
0.0
 40
0.0
 40
0.125
 40
0.125
 40
0.25
 40
0.25
 40
0.375
 40
0.375
 40
0.5
 40
0.5
 40
0.625
 40
0.625
 40
0.75
 40
0.75
 40
0.875
 40
0.875
 40
1.0
 40
1.0
 40
1.0
 40
1.0
 10
586.991821990618
 20
351.1320760239733
 30
0.0
 10
587.375889210086
 20
351.7001568341599
 30
0.0
 10
587.5895295191234
 20
352.3618653627395
 30
0.0
 10
587.6183430994914
 20
353.6940923324419
 30
0.0
 10
587.4334789455954
 20
354.3628803778451
 30
0.0
 10
586.7150617883017
 20
355.5254509045504
 30
0.0
 10
586.1824419186732
 20
356.0177233525709
 30
0.0
 10
584.9140132786788
 20
356.6914895835471
 30
0.0
 10
584.1798520380046
 20
356.872108228686
 30
0.0
 10
582.7096198454942
 20
356.8721084425408
 30
0.0
 10
581.9754585408504
 20
356.6914900109791
 30
0.0
 10
580.7070296622281
 20
356.0177241490052
 30
0.0
 10
580.1744096182516
 20
355.5254518559308
 30
0.0
 10
579.4559920492104
 20
354.3628815382224
 30
0.0
 10
579.2711276584498
 20
353.6940935465986
 30
0.0
 10
579.299940766983
 20
352.3618665685141
 30
0.0
 10
579.5135808416632
 20
351.7001579777837
 30
0.0
 10
579.8976478599341
 20
351.1320770558671
 30
0.0
  0
SPLINE
  5
2F1
330
1F
100
AcDbEntity
  8
1
  6
CONTINUOUS
 62
   155
100
AcDbSpline
210
0.0
220
0.0
230
1.0
 70
    24
 71
     3
 72
    12
 73
     8
 74
     0
 42
0.000000001
 43
0.0000000001
 40
0.0
 40
0.0
 40
0.0
 40
0.0
 40
0.2786820606339776
 40
0.2786820606339776
 40
0.5573870278135769
 40
0.5573870278135769
 40
1.0
 40
1.0
 40
1.0
 40
1.0
 10
412.4170295345415
 20
351.1322968878918
 30
0.0
 10
412.4601883767521
 20
351.1322968878917
 30
0.0
 10
412.5046541178451
 20
351.1322968878918
 30
0.0
 10
412.5991906004521
 20
351.1322968878918
 30
0.0
 10
412.6492526376498
 20
351.1322968878918
 30
0.0
 10
412.7896116181728
 20
351.1322968878918
 30
0.0
 10
412.8862880072297
 20
351.1322968878918
 30
0.0
 10
412.9985885220894
 20
351.1322968878918
 30
0.0
  0
SPLINE
  5
2F2
330
1F
100
AcDbEntity
  8
1
  6
CONTINUOUS
 62
   155
100
AcDbSpline
210
0.0
220
0.0
230
1.0
 70
    24
 71
     3
 72
     8
 73
     4
 74
     0
 42
0.000000001
 43
0.0000000001
 40
0.0
 40
0.0
 40
0.0
 40
0.0
 40
1.0
 40
1.0
 40
1.0
 40
1.0
 10
482.4113097456852
 20
351.1322968878918
 30
0.0
 10
482.4067040578071
 20
351.1322968878918
 30
0.0
 10
482.4021005637654
 20
351.1322968878918
 30
0.0
 10
482.3974992485815
 20
351.1322968878918
 30
0.0
  0
SPLINE
  5
2F3
330
1F
100
AcDbEntity
  8
1
  6
CONTINUOUS
 62
   155
100
AcDbSpline
210
0.0
220
0.0
230
1.0
 70
     8
 71
     2
 72
    24
 73
    21
 74
     0
 42
0.000000001
 43
0.0000000001
 40
0.0
 40
0.0
 40
0.0
 40
0.0625
 40
0.0625
 40
0.125
 40
0.125
 40
0.25
 40
0.25
 40
0.375
 40
0.375
 40
0.5
 40
0.5
 40
0.625
 40
0.625
 40
0.75
 40
0.75
 40
0.875
 40
0.875
 40
0.9375
 40
0.9375
 40
1.0
 40
1.0
 40
1.0
 10
420.6711595126582
 20
351.1323804239149
 30
0.0
 10
420.8040240680394
 20
350.638684519191
 30
0.0
 10
420.85560844995
 20
350.1099190177073
 30
0.0
 10
420.9118438499949
 20
349.5334782733483
 30
0.0
 10
420.8766090417973
 20
349.0268758109158
 30
0.0
 10
420.8043774894668
 20
347.9883379516831
 30
0.0
 10
420.175611475984
 20
347.1273188874072
 30
0.0
 10
419.5594448874897
 20
346.2835532129159
 30
0.0
 10
418.5760733481076
 20
345.8186724750656
 30
0.0
 10
417.6171516420773
 20
345.3653501931129
 30
0.0
 10
416.5462233354809
 20
345.3666582547398
 30
0.0
 10
415.4675494143842
 20
345.3679757770757
 30
0.0
 10
414.5174616905964
 20
345.8176755366526
 30
0.0
 10
413.5293870515186
 20
346.2853554324267
 30
0.0
 10
412.9123275472239
 20
347.1298340366383
 30
0.0
 10
412.3062825485928
 20
347.9592387066438
 30
0.0
 10
412.2173043617425
 20
348.9795886365217
 30
0.0
 10
412.1737614608779
 20
349.4789132172611
 30
0.0
 10
412.2309252765916
 20
350.0959316440707
 30
0.0
 10
412.2806796146049
 20
350.6329731796053
 30
0.0
 10
412.4166350682088
 20
351.1327803773036
 30
0.0
  0
SPLINE
  5
2F4
330
1F
100
AcDbEntity
  8
1
  6
CONTINUOUS
 62
   155
100
AcDbSpline
210
0.0
220
0.0
230
1.0
 70
     8
 71
     3
 72
    10
 73
     6
 74
     0
 42
0.000000001
 43
0.0000000001
 40
0.0
 40
0.0
 40
0.0
 40
0.0
 40
0.5
 40
0.5
 40
1.0
 40
1.0
 40
1.0
 40
1.0
 10
795.5722447074671
 20
355.1322968879002
 30
-0.0000000000000005
 10
795.5722447338908
 20
355.5593607559304
 30
-0.0000000000000005
 10
795.7460990848738
 20
355.9780824812335
 30
-0.0000000000000005
 10
796.3486445686206
 20
356.5806279649846
 30
-0.0000000000000004
 10
796.7673662939283
 20
356.7544823159421
 30
-0.0000000000000004
 10
797.1944301619558
 20
356.7544823423892
 30
-0.0000000000000003
  0
SPLINE
  5
2F5
330
1F
100
AcDbEntity
  8
1
  6
CONTINUOUS
 62
   155
100
AcDbSpline
210
0.0
220
0.0
230
1.0
 70
     8
 71
     3
 72
    10
 73
     6
 74
     0
 42
0.000000001
 43
0.0000000001
 40
0.0
 40
0.0
 40
0.0
 40
0.0
 40
0.5
 40
0.5
 40
1.0
 40
1.0
 40
1.0
 40
1.0
 10
797.1944301619557
 20
345.5101114333943
 30
-0.0000000000000003
 10
796.7673662939266
 20
345.5101114598407
 30
-0.0000000000000004
 10
796.348644568623
 20
345.6839658107988
 30
-0.0000000000000004
 10
795.7460990848714
 20
346.2865112945502
 30
-0.0000000000000005
 10
795.5722447339099
 20
346.705233019853
 30
-0.0000000000000005
 10
795.5722447074671
 20
347.1322968878833
 30
-0.0000000000000005
  0
SPLINE
  5
2F6
330
1F
100
AcDbEntity
  8
1
  6
CONTINUOUS
 62
   155
100
AcDbSpline
210
0.0
220
0.0
230
1.0
 70
     8
 71
     3
 72
    10
 73
     6
 74
     0
 42
0.000000001
 43
0.0000000001
 40
0.0
 40
0.0
 40
0.0
 40
0.0
 40
0.5
 40
0.5
 40
1.0
 40
1.0
 40
1.0
 40
1.0
 10
853.8166156164622
 20
347.1322968878816
 30
-0.0000000000000005
 10
853.8166155900035
 20
346.7052330198525
 30
-0.0000000000000005
 10
853.6427612390705
 20
346.2865112945519
 30
-0.0000000000000005
 10
853.0402157552946
 20
345.6839658107979
 30
-0.0000000000000006
 10
852.6214940300113
 20
345.5101114598419
 30
-0.0000000000000006
 10
852.1944301619736
 20
345.5101114333943
 30
-0.0000000000000007
  0
SPLINE
  5
2F7
330
1F
100
AcDbEntity
  8
1
  6
CONTINUOUS
 62
   155
100
AcDbSpline
210
0.0
220
0.0
230
1.0
 70
     8
 71
     3
 72
    46
 73
    42
 74
     0
 42
0.000000001
 43
0.0000000001
 40
-0.0156250000000001
 40
-0.0156250000000001
 40
0.0
 40
0.0
 40
0.062499999999999
 40
0.062499999999999
 40
0.1249999999999979
 40
0.1249999999999979
 40
0.249999999999997
 40
0.249999999999997
 40
0.3124999999999965
 40
0.3124999999999965
 40
0.3437499999999965
 40
0.3437499999999965
 40
0.3749999999999965
 40
0.3749999999999965
 40
0.4999999999999966
 40
0.4999999999999966
 40
0.5156249999999967
 40
0.5156249999999967
 40
0.5312499999999967
 40
0.5312499999999967
 40
0.562499999999997
 40
0.562499999999997
 40
0.6249999999999974
 40
0.6249999999999974
 40
0.687499999999998
 40
0.687499999999998
 40
0.7499999999999986
 40
0.7499999999999986
 40
0.7812499999999988
 40
0.7812499999999988
 40
0.8124999999999991
 40
0.8124999999999991
 40
0.8749999999999993
 40
0.8749999999999993
 40
0.9374999999999997
 40
0.9374999999999997
 40
0.9687499999999999
 40
0.9687499999999999
 40
0.9843749999999999
 40
0.9843749999999999
 40
1.0
 40
1.0
 40
1.062499999999999
 40
1.062499999999999
 10
787.8262631136438
 20
353.7543731711132
 30
0.0000000000000003
 10
787.9007703824003
 20
353.2914054009948
 30
0.0000000000000003
 10
788.0792223526926
 20
352.9523316918049
 30
0.0000000000000004
 10
788.5846947445415
 20
352.406010939078
 30
0.0000000000000004
 10
788.912093601741
 20
352.204771600621
 30
-0.0000000000000004
 10
789.9656910625777
 20
351.8612514776416
 30
-0.0000000000000003
 10
790.7871227366086
 20
351.9847611064652
 30
-0.0000000000000002
 10
791.6722955350612
 20
352.6479258686706
 30
-0.0000000000000001
 10
791.9080592329238
 20
352.9504200636727
 30
-0.0000000000000001
 10
792.1140998386956
 20
353.4676548086886
 30
0.0
 10
792.1533293656464
 20
353.6510807509866
 30
0.0
 10
792.1704049350265
 20
354.0199895923784
 30
0.0
 10
792.1774439841029
 20
354.2048497635677
 30
0.0
 10
792.1863306952838
 20
355.1270974896757
 30
0.0
 10
792.1151840170248
 20
355.8634608997613
 30
0.0
 10
791.9717804595982
 20
356.6819293900803
 30
-0.0000000000000001
 10
791.9589214157004
 20
356.7733679065544
 30
-0.0000000000000001
 10
791.9169894715587
 20
356.9536210675857
 30
-0.0000000000000001
 10
791.879465994754
 20
357.0357205642504
 30
-0.0000000000000001
 10
791.7524820441375
 20
357.2736573551623
 30
-0.0000000000000001
 10
791.6489454861406
 20
357.4250010326288
 30
-0.0000000000000001
 10
791.2903320101698
 20
357.8263993867604
 30
-0.0000000000000001
 10
790.9820225545438
 20
358.0327364639784
 30
-0.0000000000000002
 10
790.3004228528941
 20
358.2644590521272
 30
-0.0000000000000003
 10
789.926210900646
 20
358.2864320319052
 30
-0.0000000000000003
 10
789.2248825753177
 20
358.136097259194
 30
-0.0000000000000004
 10
788.8954022825679
 20
357.9668300872272
 30
-0.0000000000000004
 10
788.4907595023396
 20
357.6040443425675
 30
0.0000000000000004
 10
788.3728237516428
 20
357.4677967892109
 30
0.0000000000000004
 10
788.1728452732649
 20
357.1693218018567
 30
0.0000000000000004
 10
788.0805110903539
 20
357.0087674912067
 30
0.0000000000000004
 10
787.9751386489645
 20
356.4892496320358
 30
0.0000000000000003
 10
787.9250126687701
 20
356.1371248484708
 30
0.0000000000000003
 10
787.8457142829598
 20
355.4332754431642
 30
0.0000000000000003
 10
787.8208735646303
 20
355.0792750994379
 30
0.0000000000000003
 10
787.8084716010139
 20
354.5476091627618
 30
0.0000000000000003
 10
787.8084560310165
 20
354.3702275727894
 30
0.0000000000000003
 10
787.8151129781273
 20
354.1043130083321
 30
0.0000000000000003
 10
787.8184478445733
 20
354.0156936745369
 30
0.0000000000000003
 10
787.8274643369924
 20
353.8385728832041
 30
0.0000000000000003
 10
787.8262631136438
 20
353.7543731711132
 30
0.0000000000000003
 10
787.9007703824003
 20
353.2914054009948
 30
0.0000000000000003
  0
SPLINE
  5
2F8
330
1F
100
AcDbEntity
  8
1
  6
CONTINUOUS
 62
   155
100
AcDbSpline
210
0.0
220
0.0
230
1.0
 70
     8
 71
     3
 72
    46
 73
    42
 74
     0
 42
0.000000001
 43
0.0000000001
 40
-0.0156249999999996
 40
-0.0156249999999996
 40
0.0
 40
0.0
 40
0.0625000000000011
 40
0.0625000000000011
 40
0.1250000000000023
 40
0.1250000000000023
 40
0.2500000000000046
 40
0.2500000000000046
 40
0.3125000000000057
 40
0.3125000000000057
 40
0.3437500000000063
 40
0.3437500000000063
 40
0.3750000000000068
 40
0.3750000000000068
 40
0.5000000000000091
 40
0.5000000000000091
 40
0.5156250000000092
 40
0.5156250000000092
 40
0.5312500000000092
 40
0.5312500000000092
 40
0.5625000000000093
 40
0.5625000000000093
 40
0.6250000000000081
 40
0.6250000000000081
 40
0.687500000000007
 40
0.687500000000007
 40
0.7500000000000058
 40
0.7500000000000058
 40
0.7812500000000051
 40
0.7812500000000051
 40
0.8125000000000044
 40
0.8125000000000044
 40
0.875000000000003
 40
0.875000000000003
 40
0.9375000000000017
 40
0.9375000000000017
 40
0.9687500000000009
 40
0.9687500000000009
 40
0.9843750000000004
 40
0.9843750000000004
 40
1.0
 40
1.0
 40
1.062500000000001
 40
1.062500000000001
 10
861.5625972102855
 20
353.7543731711132
 30
-0.0000000000000004
 10
861.4880899415291
 20
353.2914054009947
 30
-0.0000000000000004
 10
861.3096379712368
 20
352.9523316918049
 30
0.0000000000000004
 10
860.8041655793878
 20
352.406010939078
 30
0.0000000000000004
 10
860.4767667221882
 20
352.2047716006211
 30
0.0000000000000003
 10
859.4231692613517
 20
351.8612514776417
 30
0.0000000000000002
 10
858.6017375873208
 20
351.9847611064651
 30
0.0000000000000001
 10
857.7165647888684
 20
352.6479258686703
 30
0.0
 10
857.4808010910058
 20
352.9504200636723
 30
0.0
 10
857.2747604852339
 20
353.4676548086883
 30
-0.0000000000000001
 10
857.2355309582829
 20
353.6510807509862
 30
-0.0000000000000001
 10
857.2184553889031
 20
354.019989592378
 30
-0.0000000000000001
 10
857.2114163398265
 20
354.2048497635672
 30
-0.0000000000000001
 10
857.2025296286454
 20
355.1270974896751
 30
-0.0000000000000001
 10
857.2736763069045
 20
355.8634608997605
 30
-0.0000000000000001
 10
857.417079864331
 20
356.6819293900795
 30
0.0
 10
857.4299389082288
 20
356.7733679065535
 30
0.0
 10
857.4718708523703
 20
356.9536210675848
 30
0.0
 10
857.5093943291749
 20
357.0357205642497
 30
0.0
 10
857.6363782797914
 20
357.2736573551617
 30
0.0
 10
857.7399148377883
 20
357.4250010326283
 30
0.0
 10
858.0985283137591
 20
357.8263993867601
 30
0.0
 10
858.406837769385
 20
358.0327364639783
 30
0.0000000000000001
 10
859.0884374710347
 20
358.2644590521271
 30
0.0000000000000002
 10
859.4626494232832
 20
358.2864320319052
 30
0.0000000000000002
 10
860.1639777486116
 20
358.136097259194
 30
0.0000000000000003
 10
860.4934580413614
 20
357.9668300872271
 30
0.0000000000000003
 10
860.8981008215897
 20
357.6040443425674
 30
0.0000000000000004
 10
861.0160365722866
 20
357.4677967892107
 30
0.0000000000000004
 10
861.2160150506646
 20
357.1693218018564
 30
0.0000000000000004
 10
861.3083492335755
 20
357.0087674912063
 30
0.0000000000000004
 10
861.4137216749648
 20
356.4892496320354
 30
-0.0000000000000004
 10
861.4638476551593
 20
356.1371248484705
 30
-0.0000000000000004
 10
861.5431460409695
 20
355.433275443164
 30
-0.0000000000000004
 10
861.5679867592991
 20
355.0792750994377
 30
-0.0000000000000004
 10
861.5803887229156
 20
354.5476091627617
 30
-0.0000000000000004
 10
861.5804042929128
 20
354.3702275727892
 30
-0.0000000000000004
 10
861.5737473458018
 20
354.104313008332
 30
-0.0000000000000004
 10
861.570412479356
 20
354.0156936745369
 30
-0.0000000000000004
 10
861.5613959869369
 20
353.8385728832041
 30
-0.0000000000000004
 10
861.5625972102855
 20
353.7543731711132
 30
-0.0000000000000004
 10
861.4880899415291
 20
353.2914054009947
 30
-0.0000000000000004
  0
SPLINE
  5
2F9
330
1F
100
AcDbEntity
  8
1
  6
CONTINUOUS
 62
   155
100
AcDbSpline
210
0.0
220
0.0
230
1.0
 70
     8
 71
     3
 72
    10
 73
     6
 74
     0
 42
0.000000001
 43
0.0000000001
 40
0.0
 40
0.0
 40
0.0
 40
0.0
 40
0.5
 40
0.5
 40
1.0
 40
1.0
 40
1.0
 40
1.0
 10
853.6944301619646
 20
355.1322968878917
 30
-0.0000000000000001
 10
853.6944301619317
 20
355.5260989441501
 30
-0.0000000000000001
 10
853.5327704968073
 20
355.9152768966055
 30
-0.0000000000000001
 10
852.9774101706817
 20
356.4706372227375
 30
0.0000000000000001
 10
852.5882322182206
 20
356.6322968878632
 30
0.0
 10
852.1944301619646
 20
356.6322968878917
 30
0.0
  0
SPLINE
  5
2FA
330
1F
100
AcDbEntity
  8
1
  6
CONTINUOUS
 62
   155
100
AcDbSpline
210
0.0
220
0.0
230
1.0
 70
     8
 71
     3
 72
    10
 73
     6
 74
     0
 42
0.000000001
 43
0.0000000001
 40
0.0
 40
0.0
 40
0.0
 40
0.0
 40
0.5
 40
0.5
 40
1.0
 40
1.0
 40
1.0
 40
1.0
 10
797.1944301619646
 20
356.6322968878917
 30
-0.0000000000000001
 10
796.8006281057067
 20
356.6322968878632
 30
0.0000000000000001
 10
796.4114501532503
 20
356.4706372227375
 30
0.0
 10
795.8560898271194
 20
355.9152768966055
 30
0.0
 10
795.6944301619919
 20
355.5260989441502
 30
0.0
 10
795.6944301619646
 20
355.1322968878917
 30
0.0
  0
SPLINE
  5
2FB
330
1F
100
AcDbEntity
  8
1
  6
CONTINUOUS
 62
   155
100
AcDbSpline
210
0.0
220
0.0
230
1.0
 70
     8
 71
     3
 72
    46
 73
    42
 74
     0
 42
0.000000001
 43
0.0000000001
 40
-0.015625
 40
-0.015625
 40
0.0
 40
0.0
 40
0.0624999999999997
 40
0.0624999999999997
 40
0.1249999999999994
 40
0.1249999999999994
 40
0.2499999999999988
 40
0.2499999999999988
 40
0.3124999999999989
 40
0.3124999999999989
 40
0.343749999999999
 40
0.343749999999999
 40
0.3749999999999991
 40
0.3749999999999991
 40
0.4999999999999993
 40
0.4999999999999993
 40
0.5156249999999992
 40
0.5156249999999992
 40
0.5312499999999992
 40
0.5312499999999992
 40
0.562499999999999
 40
0.562499999999999
 40
0.6249999999999996
 40
0.6249999999999996
 40
0.6875000000000002
 40
0.6875000000000002
 40
0.7500000000000008
 40
0.7500000000000008
 40
0.7812500000000007
 40
0.7812500000000007
 40
0.8125000000000004
 40
0.8125000000000004
 40
0.8750000000000002
 40
0.8750000000000002
 40
0.9375000000000001
 40
0.9375000000000001
 40
0.96875
 40
0.96875
 40
0.984375
 40
0.984375
 40
1.0
 40
1.0
 40
1.0625
 40
1.0625
 10
694.6625972102854
 20
348.5102206046703
 30
-0.0000000000000004
 10
694.5880899415291
 20
348.9731883747887
 30
-0.0000000000000004
 10
694.4096379712369
 20
349.3122620839785
 30
0.0000000000000004
 10
693.9041655793881
 20
349.8585828367052
 30
0.0000000000000004
 10
693.5767667221886
 20
350.0598221751623
 30
0.0000000000000003
 10
692.5231692613523
 20
350.4033422981418
 30
0.0000000000000002
 10
691.7017375873216
 20
350.2798326693186
 30
0.0000000000000001
 10
690.8165647888688
 20
349.6166679071138
 30
0.0
 10
690.5808010910062
 20
349.3141737121119
 30
0.0
 10
690.3747604852342
 20
348.7969389670961
 30
-0.0000000000000001
 10
690.335530958283
 20
348.6135130247982
 30
-0.0000000000000001
 10
690.3184553889029
 20
348.2446041834065
 30
-0.0000000000000001
 10
690.3114163398266
 20
348.0597440122173
 30
-0.0000000000000001
 10
690.3025296286454
 20
347.1374962861094
 30
-0.0000000000000001
 10
690.3736763069043
 20
346.401132876024
 30
-0.0000000000000001
 10
690.5170798643308
 20
345.5826643857052
 30
-0.0000000000000001
 10
690.5299389082286
 20
345.4912258692311
 30
0.0
 10
690.5718708523699
 20
345.3109727081998
 30
0.0
 10
690.6093943291744
 20
345.2288732115348
 30
0.0
 10
690.7363782797908
 20
344.9909364206227
 30
0.0
 10
690.8399148377875
 20
344.8395927431562
 30
0.0
 10
691.1985283137582
 20
344.4381943890241
 30
0.0
 10
691.5068377693841
 20
344.2318573118058
 30
0.0000000000000001
 10
692.1884374710338
 20
344.0001347236566
 30
0.0000000000000002
 10
692.5626494232822
 20
343.9781617438782
 30
0.0000000000000002
 10
693.2639777486107
 20
344.1284965165892
 30
0.0000000000000003
 10
693.5934580413607
 20
344.297763688556
 30
0.0000000000000003
 10
693.9981008215892
 20
344.6605494332155
 30
0.0000000000000004
 10
694.1160365722861
 20
344.7967969865722
 30
0.0000000000000004
 10
694.3160150506643
 20
345.0952719739264
 30
0.0000000000000004
 10
694.4083492335754
 20
345.2558262845765
 30
0.0000000000000004
 10
694.5137216749646
 20
345.7753441437475
 30
0.0000000000000004
 10
694.5638476551592
 20
346.1274689273125
 30
-0.0000000000000004
 10
694.6431460409694
 20
346.8313183326191
 30
-0.0000000000000004
 10
694.667986759299
 20
347.1853186763455
 30
-0.0000000000000004
 10
694.6803887229155
 20
347.7169846130216
 30
-0.0000000000000004
 10
694.6804042929128
 20
347.8943662029941
 30
-0.0000000000000004
 10
694.673747345802
 20
348.1602807674514
 30
-0.0000000000000004
 10
694.6704124793561
 20
348.2489001012465
 30
-0.0000000000000004
 10
694.6613959869369
 20
348.4260208925793
 30
-0.0000000000000004
 10
694.6625972102854
 20
348.5102206046703
 30
-0.0000000000000004
 10
694.5880899415291
 20
348.9731883747887
 30
-0.0000000000000004
  0
SPLINE
  5
2FC
330
1F
100
AcDbEntity
  8
1
  6
CONTINUOUS
 62
   155
100
AcDbSpline
210
0.0
220
0.0
230
1.0
 70
     8
 71
     3
 72
    10
 73
     6
 74
     0
 42
0.000000001
 43
0.0000000001
 40
0.0
 40
0.0
 40
0.0
 40
0.0
 40
0.5
 40
0.5
 40
1.0
 40
1.0
 40
1.0
 40
1.0
 10
852.1944301619646
 20
345.6322968878918
 30
0.0
 10
852.5882322182208
 20
345.6322968879207
 30
0.0
 10
852.9774101706817
 20
345.7939565530458
 30
0.0000000000000001
 10
853.5327704968073
 20
346.3493168791782
 30
-0.0000000000000001
 10
853.6944301619317
 20
346.7384948316333
 30
-0.0000000000000001
 10
853.6944301619646
 20
347.1322968878918
 30
-0.0000000000000001
  0
SPLINE
  5
2FD
330
1F
100
AcDbEntity
  8
1
  6
CONTINUOUS
 62
   155
100
AcDbSpline
210
0.0
220
0.0
230
1.0
 70
     8
 71
     3
 72
    46
 73
    42
 74
     0
 42
0.000000001
 43
0.0000000001
 40
-0.0312500000000002
 40
-0.0312500000000002
 40
0.0
 40
0.0
 40
0.0156250000000001
 40
0.0156250000000001
 40
0.0312500000000001
 40
0.0312500000000001
 40
0.0625000000000001
 40
0.0625000000000001
 40
0.1250000000000002
 40
0.1250000000000002
 40
0.1875000000000003
 40
0.1875000000000003
 40
0.2187500000000004
 40
0.2187500000000004
 40
0.2500000000000005
 40
0.2500000000000005
 40
0.3125000000000007
 40
0.3125000000000007
 40
0.3750000000000009
 40
0.3750000000000009
 40
0.4375000000000012
 40
0.4375000000000012
 40
0.4687500000000008
 40
0.4687500000000008
 40
0.5000000000000004
 40
0.5000000000000004
 40
0.6249999999999993
 40
0.6249999999999993
 40
0.6562499999999991
 40
0.6562499999999991
 40
0.6874999999999989
 40
0.6874999999999989
 40
0.7499999999999989
 40
0.7499999999999989
 40
0.8749999999999989
 40
0.8749999999999989
 40
0.9374999999999994
 40
0.9374999999999994
 40
0.9687499999999998
 40
0.9687499999999998
 40
1.0
 40
1.0
 40
1.015625
 40
1.015625
 10
787.8696196281874
 20
348.7796261162847
 30
0.0000000000000003
 10
787.826937036999
 20
348.5144081798987
 30
0.0000000000000003
 10
787.8273565594357
 20
348.42433926194
 30
0.0000000000000003
 10
787.8183002406158
 20
348.2455525663115
 30
0.0000000000000003
 10
787.8149661761671
 20
348.1560697740842
 30
0.0000000000000003
 10
787.8083759560429
 20
347.8877181332844
 30
0.0000000000000003
 10
787.8085146981581
 20
347.7089480868561
 30
0.0000000000000003
 10
787.8214614328078
 20
347.1730002623348
 30
0.0000000000000003
 10
787.8469468293539
 20
346.815693063268
 30
0.0000000000000003
 10
787.9281272394954
 20
346.1047690439693
 30
0.0000000000000003
 10
787.9762138247348
 20
345.7484329968774
 30
0.0000000000000003
 10
788.0890093127111
 20
345.2259049327227
 30
0.0000000000000004
 10
788.1888518076298
 20
345.0667284290884
 30
0.0000000000000004
 10
788.3945975964187
 20
344.7699043922795
 30
0.0000000000000004
 10
788.5157911558647
 20
344.6342745496533
 30
0.0000000000000004
 10
788.9283689547649
 20
344.2771706184321
 30
-0.0000000000000004
 10
789.2630374305578
 20
344.1131482890555
 30
-0.0000000000000004
 10
789.9702415254039
 20
343.976778541
 30
-0.0000000000000003
 10
790.3460440362619
 20
344.0071144481188
 30
-0.0000000000000003
 10
791.0281636788734
 20
344.2573005209289
 30
-0.0000000000000002
 10
791.3332664307111
 20
344.4723825273509
 30
-0.0000000000000001
 10
791.6835391166709
 20
344.8870254858913
 30
-0.0000000000000001
 10
791.7843767802158
 20
345.0413937374533
 30
-0.0000000000000001
 10
791.9455316263811
 20
345.3656286748276
 30
-0.0000000000000001
 10
791.9674878123913
 20
345.5549155476443
 30
-0.0000000000000001
 10
792.1240251781461
 20
346.4675379181299
 30
0.0
 10
792.1911197122677
 20
347.2066684877085
 30
0.0
 10
792.1750132825679
 20
348.1338885439123
 30
0.0
 10
792.1710936204138
 20
348.3193165344435
 30
0.0
 10
792.14399071673
 20
348.6897306101168
 30
0.0
 10
792.0926787367252
 20
348.8646946134819
 30
0.0
 10
791.8707803552734
 20
349.370039742863
 30
-0.0000000000000001
 10
791.6280322652768
 20
349.6614359267529
 30
-0.0000000000000001
 10
790.732810843679
 20
350.2942513363207
 30
-0.0000000000000002
 10
789.9232460008575
 20
350.3993318200364
 30
-0.0000000000000003
 10
788.8894906816257
 20
350.0472199097886
 30
-0.0000000000000004
 10
788.5718181198956
 20
349.8482511194471
 30
0.0000000000000004
 10
788.1981557502513
 20
349.4389126527244
 30
0.0000000000000004
 10
788.0944800278639
 20
349.2893358898717
 30
0.0000000000000004
 10
787.9308747294442
 20
348.9626700334812
 30
0.0000000000000003
 10
787.8696196281874
 20
348.7796261162847
 30
0.0000000000000003
 10
787.826937036999
 20
348.5144081798987
 30
0.0000000000000003
  0
SPLINE
  5
2FE
330
1F
100
AcDbEntity
  8
1
  6
CONTINUOUS
 62
   155
100
AcDbSpline
210
0.0
220
0.0
230
1.0
 70
     8
 71
     3
 72
    46
 73
    42
 74
     0
 42
0.000000001
 43
0.0000000001
 40
-0.03125
 40
-0.03125
 40
0.0
 40
0.0
 40
0.0156250000000003
 40
0.0156250000000003
 40
0.0312500000000006
 40
0.0312500000000006
 40
0.0625000000000011
 40
0.0625000000000011
 40
0.1250000000000019
 40
0.1250000000000019
 40
0.1875000000000028
 40
0.1875000000000028
 40
0.2187500000000034
 40
0.2187500000000034
 40
0.2500000000000039
 40
0.2500000000000039
 40
0.3125000000000042
 40
0.3125000000000042
 40
0.3750000000000046
 40
0.3750000000000046
 40
0.4375000000000049
 40
0.4375000000000049
 40
0.4687500000000047
 40
0.4687500000000047
 40
0.5000000000000046
 40
0.5000000000000046
 40
0.6250000000000037
 40
0.6250000000000037
 40
0.6562500000000034
 40
0.6562500000000034
 40
0.6875000000000032
 40
0.6875000000000032
 40
0.7500000000000024
 40
0.7500000000000024
 40
0.8750000000000008
 40
0.8750000000000008
 40
0.9375
 40
0.9375
 40
0.96875
 40
0.96875
 40
1.0
 40
1.0
 40
1.015625
 40
1.015625
 10
694.619240695742
 20
353.4849676594988
 30
-0.0000000000000004
 10
694.6619232869303
 20
353.7501855958848
 30
-0.0000000000000004
 10
694.6615037644937
 20
353.8402545138435
 30
-0.0000000000000004
 10
694.6705600833136
 20
354.0190412094721
 30
-0.0000000000000004
 10
694.6738941477622
 20
354.1085240016993
 30
-0.0000000000000004
 10
694.6804843678864
 20
354.3768756424992
 30
-0.0000000000000004
 10
694.6803456257712
 20
354.5556456889274
 30
-0.0000000000000004
 10
694.6673988911215
 20
355.0915935134487
 30
-0.0000000000000004
 10
694.6419134945754
 20
355.4489007125156
 30
-0.0000000000000004
 10
694.5607330844339
 20
356.1598247318144
 30
-0.0000000000000004
 10
694.5126464991946
 20
356.5161607789062
 30
0.0000000000000004
 10
694.3998510112181
 20
357.0386888430609
 30
0.0000000000000004
 10
694.3000085162994
 20
357.1978653466952
 30
0.0000000000000004
 10
694.0942627275103
 20
357.4946893835042
 30
0.0000000000000004
 10
693.9730691680645
 20
357.6303192261304
 30
0.0000000000000004
 10
693.5604913691641
 20
357.9874231573517
 30
0.0000000000000003
 10
693.225822893371
 20
358.1514454867282
 30
0.0000000000000003
 10
692.5186187985246
 20
358.2878152347835
 30
0.0000000000000002
 10
692.1428162876664
 20
358.2574793276645
 30
0.0000000000000001
 10
691.4606966450549
 20
358.0072932548541
 30
0.0000000000000001
 10
691.1555938932173
 20
357.7922112484318
 30
0.0
 10
690.8053212072576
 20
357.3775682898911
 30
0.0
 10
690.7044835437127
 20
357.223200038329
 30
0.0
 10
690.5433286975476
 20
356.8989651009545
 30
0.0
 10
690.5213725115378
 20
356.7096782281376
 30
0.0
 10
690.364835145783
 20
355.7970558576521
 30
-0.0000000000000001
 10
690.2977406116615
 20
355.0579252880735
 30
-0.0000000000000001
 10
690.3138470413616
 20
354.1307052318697
 30
-0.0000000000000001
 10
690.3177667035155
 20
353.9452772413387
 30
-0.0000000000000001
 10
690.3448696071996
 20
353.5748631656654
 30
-0.0000000000000001
 10
690.3961815872044
 20
353.3998991623005
 30
-0.0000000000000001
 10
690.6180799686566
 20
352.8945540329194
 30
0.0
 10
690.8608280586532
 20
352.60315784903
 30
0.0
 10
691.7560494802512
 20
351.9703424394626
 30
0.0000000000000001
 10
692.5656143230724
 20
351.8652619557472
 30
0.0000000000000002
 10
693.5993696423039
 20
352.2173738659951
 30
0.0000000000000003
 10
693.917042204034
 20
352.4163426563368
 30
0.0000000000000004
 10
694.2907045736781
 20
352.8256811230592
 30
0.0000000000000004
 10
694.3943802960654
 20
352.9752578859119
 30
0.0000000000000004
 10
694.5579855944851
 20
353.3019237423024
 30
-0.0000000000000004
 10
694.619240695742
 20
353.4849676594988
 30
-0.0000000000000004
 10
694.6619232869303
 20
353.7501855958848
 30
-0.0000000000000004
  0
SPLINE
  5
2FF
330
1F
100
AcDbEntity
  8
1
  6
CONTINUOUS
 62
   155
100
AcDbSpline
210
0.0
220
0.0
230
1.0
 70
     8
 71
     3
 72
    46
 73
    42
 74
     0
 42
0.000000001
 43
0.0000000001
 40
-0.0312500000000002
 40
-0.0312500000000002
 40
0.0
 40
0.0
 40
0.0156249999999999
 40
0.0156249999999999
 40
0.0312499999999997
 40
0.0312499999999997
 40
0.0624999999999993
 40
0.0624999999999993
 40
0.1249999999999985
 40
0.1249999999999985
 40
0.1874999999999977
 40
0.1874999999999977
 40
0.2187499999999976
 40
0.2187499999999976
 40
0.2499999999999974
 40
0.2499999999999974
 40
0.3124999999999989
 40
0.3124999999999989
 40
0.3750000000000004
 40
0.3750000000000004
 40
0.4375000000000019
 40
0.4375000000000019
 40
0.468750000000002
 40
0.468750000000002
 40
0.500000000000002
 40
0.500000000000002
 40
0.6250000000000007
 40
0.6250000000000007
 40
0.6562500000000004
 40
0.6562500000000004
 40
0.6875000000000001
 40
0.6875000000000001
 40
0.7500000000000004
 40
0.7500000000000004
 40
0.8749999999999992
 40
0.8749999999999992
 40
0.9374999999999997
 40
0.9374999999999997
 40
0.9687499999999998
 40
0.9687499999999998
 40
1.0
 40
1.0
 40
1.015625
 40
1.015625
 10
861.5192406957419
 20
348.7796261162847
 30
-0.0000000000000004
 10
861.5619232869303
 20
348.5144081798987
 30
-0.0000000000000004
 10
861.5615037644936
 20
348.42433926194
 30
-0.0000000000000004
 10
861.5705600833136
 20
348.2455525663114
 30
-0.0000000000000004
 10
861.5738941477622
 20
348.1560697740842
 30
-0.0000000000000004
 10
861.5804843678865
 20
347.8877181332842
 30
-0.0000000000000004
 10
861.5803456257712
 20
347.7089480868559
 30
-0.0000000000000004
 10
861.5673988911215
 20
347.1730002623346
 30
-0.0000000000000004
 10
861.5419134945754
 20
346.8156930632677
 30
-0.0000000000000004
 10
861.4607330844339
 20
346.1047690439688
 30
-0.0000000000000004
 10
861.4126464991949
 20
345.7484329968768
 30
-0.0000000000000004
 10
861.2998510112178
 20
345.2259049327221
 30
0.0000000000000004
 10
861.2000085162992
 20
345.0667284290878
 30
0.0000000000000004
 10
860.99426272751
 20
344.7699043922789
 30
0.0000000000000004
 10
860.8730691680641
 20
344.6342745496527
 30
0.0000000000000004
 10
860.4604913691637
 20
344.2771706184316
 30
0.0000000000000003
 10
860.1258228933706
 20
344.1131482890552
 30
0.0000000000000003
 10
859.4186187985242
 20
343.9767785409999
 30
0.0000000000000002
 10
859.042816287666
 20
344.0071144481191
 30
0.0000000000000002
 10
858.3606966450546
 20
344.2573005209296
 30
0.0000000000000001
 10
858.055593893217
 20
344.4723825273519
 30
0.0
 10
857.7053212072575
 20
344.8870254858927
 30
0.0
 10
857.6044835437126
 20
345.0413937374549
 30
0.0
 10
857.4433286975475
 20
345.3656286748294
 30
0.0
 10
857.4213725115377
 20
345.5549155476462
 30
0.0
 10
857.264835145783
 20
346.4675379181318
 30
-0.0000000000000001
 10
857.1977406116614
 20
347.2066684877105
 30
-0.0000000000000001
 10
857.2138470413615
 20
348.1338885439143
 30
-0.0000000000000001
 10
857.2177667035155
 20
348.3193165344454
 30
-0.0000000000000001
 10
857.2448696071997
 20
348.6897306101188
 30
-0.0000000000000001
 10
857.2961815872046
 20
348.8646946134836
 30
-0.0000000000000001
 10
857.5180799686569
 20
349.3700397428645
 30
0.0
 10
857.7608280586536
 20
349.6614359267539
 30
0.0
 10
858.6560494802517
 20
350.2942513363211
 30
0.0000000000000001
 10
859.4656143230727
 20
350.3993318200362
 30
0.0000000000000002
 10
860.4993696423041
 20
350.0472199097883
 30
0.0000000000000003
 10
860.8170422040341
 20
349.8482511194466
 30
0.0000000000000004
 10
861.1907045736782
 20
349.4389126527242
 30
0.0000000000000004
 10
861.2943802960656
 20
349.2893358898715
 30
0.0000000000000004
 10
861.4579855944852
 20
348.962670033481
 30
-0.0000000000000004
 10
861.5192406957419
 20
348.7796261162847
 30
-0.0000000000000004
 10
861.5619232869303
 20
348.5144081798987
 30
-0.0000000000000004
  0
SPLINE
  5
300
330
1F
100
AcDbEntity
  8
1
  6
CONTINUOUS
 62
   155
100
AcDbSpline
210
0.0
220
0.0
230
1.0
 70
     8
 71
     3
 72
    10
 73
     6
 74
     0
 42
0.000000001
 43
0.0000000001
 40
0.0
 40
0.0
 40
0.0
 40
0.0
 40
0.5
 40
0.5
 40
1.0
 40
1.0
 40
1.0
 40
1.0
 10
795.6944301619646
 20
347.1322968878918
 30
0.0
 10
795.6944301619919
 20
346.7384948316332
 30
0.0
 10
795.8560898271194
 20
346.3493168791782
 30
0.0
 10
796.4114501532503
 20
345.7939565530458
 30
0.0
 10
796.8006281057067
 20
345.6322968879207
 30
0.0000000000000001
 10
797.1944301619646
 20
345.6322968878918
 30
-0.0000000000000001
  0
SPLINE
  5
301
330
1F
100
AcDbEntity
  8
1
  6
CONTINUOUS
 62
   155
100
AcDbSpline
210
0.0
220
0.0
230
1.0
 70
     8
 71
     3
 72
    10
 73
     6
 74
     0
 42
0.000000001
 43
0.0000000001
 40
0.0
 40
0.0
 40
0.0
 40
0.0
 40
0.5
 40
0.5
 40
1.0
 40
1.0
 40
1.0
 40
1.0
 10
852.1944301619735
 20
356.7544823423892
 30
-0.0000000000000007
 10
852.6214940299997
 20
356.754482315943
 30
-0.0000000000000006
 10
853.0402157553101
 20
356.5806279649836
 30
-0.0000000000000006
 10
853.642761239055
 20
355.9780824812336
 30
-0.0000000000000005
 10
853.8166155900035
 20
355.5593607559295
 30
-0.0000000000000005
 10
853.8166156164622
 20
355.1322968879019
 30
-0.0000000000000005
  0
SPLINE
  5
302
330
1F
100
AcDbEntity
  8
1
  6
CONTINUOUS
 62
   155
100
AcDbSpline
210
0.0
220
0.0
230
1.0
 70
     8
 71
     3
 72
     8
 73
     4
 74
     0
 42
0.000000001
 43
0.0000000001
 40
0.0
 40
0.0
 40
0.0
 40
0.0
 40
1.0
 40
1.0
 40
1.0
 40
1.0
 10
493.3565067064427
 20
404.3977235323908
 30
0.0
 10
493.0754515644189
 20
404.460593057292
 30
0.0
 10
492.826143411106
 20
404.5603634342561
 30
0.0
 10
492.626957449521
 20
404.5603634342561
 30
0.0
  0
SPLINE
  5
303
330
1F
100
AcDbEntity
  8
1
  6
CONTINUOUS
 62
   155
100
AcDbSpline
210
0.0
220
0.0
230
1.0
 70
     8
 71
     3
 72
     8
 73
     4
 74
     0
 42
0.000000001
 43
0.0000000001
 40
0.0
 40
0.0
 40
0.0
 40
0.0
 40
1.0
 40
1.0
 40
1.0
 40
1.0
 10
492.626957449521
 20
402.3603634342561
 30
0.0
 10
492.8261432864899
 20
402.3603634342561
 30
0.0
 10
493.0754467341191
 20
402.4601327307253
 30
0.0
 10
493.3565067064427
 20
402.5230033361214
 30
0.0
  0
SPLINE
  5
304
330
1F
100
AcDbEntity
  8
1
  6
CONTINUOUS
 62
   155
100
AcDbSpline
210
0.0
220
0.0
230
1.0
 70
     8
 71
     3
 72
     8
 73
     4
 74
     0
 42
0.000000001
 43
0.0000000001
 40
0.0
 40
0.0
 40
0.0
 40
0.0
 40
1.0
 40
1.0
 40
1.0
 40
1.0
 10
492.626957449521
 20
404.5603634342561
 30
0.0
 10
492.8261432864899
 20
404.5603634342561
 30
0.0
 10
493.0754467341191
 20
404.6601327307253
 30
0.0
 10
493.3565067064427
 20
404.7230033361214
 30
0.0
  0
SPLINE
  5
305
330
1F
100
AcDbEntity
  8
1
  6
CONTINUOUS
 62
   155
100
AcDbSpline
210
0.0
220
0.0
230
1.0
 70
     8
 71
     3
 72
     8
 73
     4
 74
     0
 42
0.000000001
 43
0.0000000001
 40
0.0
 40
0.0
 40
0.0
 40
0.0
 40
1.0
 40
1.0
 40
1.0
 40
1.0
 10
493.3565067064427
 20
406.5977235323908
 30
0.0
 10
493.0754515644189
 20
406.660593057292
 30
0.0
 10
492.826143411106
 20
406.7603634342561
 30
0.0
 10
492.626957449521
 20
406.7603634342561
 30
0.0
  0
SPLINE
  5
306
330
1F
100
AcDbEntity
  8
1
  6
CONTINUOUS
 62
   155
100
AcDbSpline
210
0.0
220
0.0
230
1.0
 70
     8
 71
     3
 72
     8
 73
     4
 74
     0
 42
0.000000001
 43
0.0000000001
 40
0.0
 40
0.0
 40
0.0
 40
0.0
 40
1.0
 40
1.0
 40
1.0
 40
1.0
 10
493.3565067064427
 20
294.1932449924999
 30
-0.0000000000000001
 10
493.0754515644189
 20
294.2561145174011
 30
-0.0000000000000001
 10
492.826143411106
 20
294.3558848943652
 30
-0.0000000000000001
 10
492.626957449521
 20
294.3558848943652
 30
-0.0000000000000001
  0
SPLINE
  5
307
330
1F
100
AcDbEntity
  8
1
  6
CONTINUOUS
 62
   155
100
AcDbSpline
210
0.0
220
0.0
230
1.0
 70
     8
 71
     3
 72
     8
 73
     4
 74
     0
 42
0.000000001
 43
0.0000000001
 40
0.0
 40
0.0
 40
0.0
 40
0.0
 40
1.0
 40
1.0
 40
1.0
 40
1.0
 10
575.1329638417502
 20
294.5185247962306
 30
-0.0000000000000001
 10
575.414018983774
 20
294.4556552713294
 30
-0.0000000000000001
 10
575.663327137087
 20
294.3558848943652
 30
-0.0000000000000001
 10
575.8625130986719
 20
294.3558848943652
 30
-0.0000000000000001
  0
SPLINE
  5
308
330
1F
100
AcDbEntity
  8
1
  6
CONTINUOUS
 62
   155
100
AcDbSpline
210
0.0
220
0.0
230
1.0
 70
     8
 71
     3
 72
     8
 73
     4
 74
     0
 42
0.000000001
 43
0.0000000001
 40
0.0
 40
0.0
 40
0.0
 40
0.0
 40
1.0
 40
1.0
 40
1.0
 40
1.0
 10
492.626957449521
 20
292.1558848943652
 30
0.0
 10
492.8261432864899
 20
292.1558848943652
 30
0.0
 10
493.0754467341191
 20
292.2556541908344
 30
0.0
 10
493.3565067064427
 20
292.3185247962305
 30
0.0
  0
SPLINE
  5
309
330
1F
100
AcDbEntity
  8
1
  6
CONTINUOUS
 62
   155
100
AcDbSpline
210
0.0
220
0.0
230
1.0
 70
     8
 71
     3
 72
     8
 73
     4
 74
     0
 42
0.000000001
 43
0.0000000001
 40
0.0
 40
0.0
 40
0.0
 40
0.0
 40
1.0
 40
1.0
 40
1.0
 40
1.0
 10
575.8625130986719
 20
296.5558848943652
 30
-0.0000000000000003
 10
575.6633272617031
 20
296.5558848943652
 30
-0.0000000000000003
 10
575.4140238140739
 20
296.456115597896
 30
-0.0000000000000002
 10
575.1329638417502
 20
296.3932449924999
 30
-0.0000000000000002
  0
SPLINE
  5
30A
330
1F
100
AcDbEntity
  8
1
  6
CONTINUOUS
 62
   155
100
AcDbSpline
210
0.0
220
0.0
230
1.0
 70
     8
 71
     3
 72
     8
 73
     4
 74
     0
 42
0.000000001
 43
0.0000000001
 40
0.0
 40
0.0
 40
0.0
 40
0.0
 40
1.0
 40
1.0
 40
1.0
 40
1.0
 10
492.626957449521
 20
294.3558848943652
 30
-0.0000000000000001
 10
492.8261432864899
 20
294.3558848943652
 30
-0.0000000000000001
 10
493.0754467341191
 20
294.4556541908344
 30
-0.0000000000000001
 10
493.3565067064427
 20
294.5185247962305
 30
-0.0000000000000001
  0
SPLINE
  5
30B
330
1F
100
AcDbEntity
  8
1
  6
CONTINUOUS
 62
   155
100
AcDbSpline
210
0.0
220
0.0
230
1.0
 70
     8
 71
     3
 72
     8
 73
     4
 74
     0
 42
0.000000001
 43
0.0000000001
 40
0.0
 40
0.0
 40
0.0
 40
0.0
 40
1.0
 40
1.0
 40
1.0
 40
1.0
 10
575.1329638417502
 20
292.3185247962306
 30
0.0
 10
575.414018983774
 20
292.2556552713294
 30
0.0
 10
575.6633271370869
 20
292.1558848943652
 30
0.0
 10
575.8625130986719
 20
292.1558848943652
 30
0.0
  0
SPLINE
  5
30C
330
1F
100
AcDbEntity
  8
1
  6
CONTINUOUS
 62
   155
100
AcDbSpline
210
0.0
220
0.0
230
1.0
 70
     8
 71
     3
 72
     8
 73
     4
 74
     0
 42
0.000000001
 43
0.0000000001
 40
0.0
 40
0.0
 40
0.0
 40
0.0
 40
1.0
 40
1.0
 40
1.0
 40
1.0
 10
493.3565067064427
 20
296.3932449924999
 30
-0.0000000000000002
 10
493.0754515644189
 20
296.4561145174011
 30
-0.0000000000000002
 10
492.826143411106
 20
296.5558848943652
 30
-0.0000000000000003
 10
492.626957449521
 20
296.5558848943652
 30
-0.0000000000000003
  0
SPLINE
  5
30D
330
1F
100
AcDbEntity
  8
1
  6
CONTINUOUS
 62
   155
100
AcDbSpline
210
0.0
220
0.0
230
1.0
 70
     8
 71
     3
 72
     8
 73
     4
 74
     0
 42
0.000000001
 43
0.0000000001
 40
0.0
 40
0.0
 40
0.0
 40
0.0
 40
1.0
 40
1.0
 40
1.0
 40
1.0
 10
575.8625130986719
 20
294.3558848943652
 30
-0.0000000000000001
 10
575.6633272617031
 20
294.3558848943652
 30
-0.0000000000000001
 10
575.4140238140739
 20
294.256115597896
 30
-0.0000000000000001
 10
575.1329638417502
 20
294.1932449925
 30
-0.0000000000000001
  0
MTEXT
  5
30E
330
1F
100
AcDbEntity
  8
1
  6
CONTINUOUS
 62
    35
100
AcDbMText
 10
635.178415
 20
419.13733
 30
0.0
 40
3.5
 41
0.0
 71
     7
 72
     5
  3
\W00.815;! ACHTUNG !\PJede Vervielfältigung, Verwertung oder Weitergabe dieser Zeichnung ohne unsere ausdrückliche schriftliche\PGenehmigung ist aufgrund bestehender gesetzlicher Vorschriften untersagt und wird strafrechtlich verfolgt.\PAlle Rechte 
  1
vorbehalten.\P\P! ATTENTION !\PAny reproduction, recovery, or transfer of this drawing without our express written\Ppermission is prohibited under existing legislation and will be prosecuted.\PAll rights reserved.\P 
  7
ISO-1
1001
ACAD
1000
MTEXTBEGIN
1070
    44
1040
0.963855
1000
MTEXTEND
1000
ACAD_MTEXT_DEFINED_HEIGHT_BEGIN
1070
    46
1040
0.2
1000
ACAD_MTEXT_DEFINED_HEIGHT_END
  0
MTEXT
  5
311
330
1F
100
AcDbEntity
  8
1
  6
CONTINUOUS
 62
    35
100
AcDbMText
 10
744.477758
 20
405.006942
 30
0.0
 40
5.0
 41
0.0
 71
     7
 72
     5
  1
\W00.764;29776W 
  7
ISO-1
1001
ACAD
1000
MTEXTBEGIN
1070
    73
1070
     2
1070
    44
1040
0.963855
1000
MTEXTEND
1000
ACAD_MTEXT_DEFINED_HEIGHT_BEGIN
1070
    46
1040
0.2
1000
ACAD_MTEXT_DEFINED_HEIGHT_END
  0
ENDSEC
  0
SECTION
  2
OBJECTS
  0
DICTIONARY
  5
C
330
0
100
AcDbDictionary
  3
ACAD_GROUP
350
D
  3
ACAD_LAYOUT
350
1A
  3
ACAD_MATERIAL
350
3B
  3
ACAD_MLEADERSTYLE
350
34C
  3
ACAD_MLINESTYLE
350
17
  3
ACAD_PLOTSETTINGS
350
19
  3
ACAD_VISUALSTYLE
350
2A
  3
ACDBHEADERROUNDTRIPXREC
350
32A
  3
ACDBVARIABLEDICTIONARY
350
34A
  0
DICTIONARY
  5
D
102
{ACAD_REACTORS
330
C
102
}
330
C
100
AcDbDictionary
  0
DICTIONARY
  5
1A
102
{ACAD_REACTORS
330
C
102
}
330
C
100
AcDbDictionary
  0
DICTIONARY
  5
3B
102
{ACAD_REACTORS
330
C
102
}
330
C
100
AcDbDictionary
  3
BYBLOCK
350
3D
  3
BYLAYER
350
3C
  3
GLOBAL
350
3E
  0
DICTIONARY
  5
34C
102
{ACAD_REACTORS
330
C
102
}
330
C
100
AcDbDictionary
  0
DICTIONARY
  5
17
102
{ACAD_REACTORS
330
C
102
}
330
C
100
AcDbDictionary
  3
STANDARD
350
18
  0
DICTIONARY
  5
19
102
{ACAD_REACTORS
330
C
102
}
330
C
100
AcDbDictionary
  0
DICTIONARY
  5
2A
102
{ACAD_REACTORS
330
C
102
}
330
C
100
AcDbDictionary
  3
2DWIREFRAME
350
2F
  3
3D_HIDDEN
350
31
  3
3DWIREFRAME
350
30
  3
BASIC
350
32
  3
BRIGHTEN
350
36
  3
COLORCHANGE
350
3A
  3
CONCEPTUAL
350
34
  3
DIM
350
35
  3
FACEPATTERN
350
39
  3
FLAT
350
2B
  3
FLATWITHEDGES
350
2C
  3
GOURAUD
350
2D
  3
GOURAUDWITHEDGES
350
2E
  3
LINEPATTERN
350
38
  3
REALISTIC
350
33
  3
THICKEN
350
37
  0
DICTIONARY
  5
32A
102
{ACAD_REACTORS
330
C
102
}
330
C
100
AcDbDictionary
  3
CEPSNTYPE
350
333
  3
DIMSTYLEDATA
350
349
  3
FINGERPRINTGUID
350
334
  3
HYPERLINKBASE
350
32D
  3
INSUNITS
350
332
  3
LAYOUTDICT
350
32F
  3
LWETCUNION
350
331
  3
PLOTSETDICT
350
330
  3
PSVPSCALE
350
336
  3
PUCSBASE
350
339
  3
PUCSORGBACK
350
33F
  3
PUCSORGBOTTOM
350
33B
  3
PUCSORGFRONT
350
33E
  3
PUCSORGLEFT
350
33C
  3
PUCSORGRIGHT
350
33D
  3
PUCSORGTOP
350
33A
  3
PUCSORTHOREF
350
337
  3
PUCSORTHOVIEW
350
338
  3
STYLESHEET
350
32E
  3
TSTACKALIGN
350
32B
  3
TSTACKSIZE
350
32C
  3
UCSBASE
350
342
  3
UCSORGBACK
350
348
  3
UCSORGBOTTOM
350
344
  3
UCSORGFRONT
350
347
  3
UCSORGLEFT
350
345
  3
UCSORGRIGHT
350
346
  3
UCSORGTOP
350
343
  3
UCSORTHOREF
350
340
  3
UCSORTHOVIEW
350
341
  3
VERSIONGUID
350
335
  0
DICTIONARY
  5
34A
102
{ACAD_REACTORS
330
C
102
}
330
C
100
AcDbDictionary
  3
DIMASSOC
350
34D
  3
HIDETEXT
350
34E
  0
MATERIAL
  5
3D
102
{ACAD_REACTORS
330
3B
102
}
102
{ACAD_XDICTIONARY
360
351
102
}
330
3B
100
AcDbMaterial
  1
ByBlock
  0
MATERIAL
  5
3C
102
{ACAD_REACTORS
330
3B
102
}
102
{ACAD_XDICTIONARY
360
34F
102
}
330
3B
100
AcDbMaterial
  1
ByLayer
  0
MATERIAL
  5
3E
102
{ACAD_REACTORS
330
3B
102
}
102
{ACAD_XDICTIONARY
360
353
102
}
330
3B
100
AcDbMaterial
  1
Global
  0
MLINESTYLE
  5
18
102
{ACAD_REACTORS
330
17
102
}
330
17
100
AcDbMlineStyle
  2
Standard
 70
     0
  3

 62
   256
 51
90.0
 52
90.0
 71
     2
 49
0.5
 62
   256
  6
BYLAYER
 49
-0.5
 62
   256
  6
BYLAYER
  0
ACAD_PROXY_OBJECT
  5
2F
102
{ACAD_REACTORS
330
2A
102
}
330
2A
100
AcDbProxyObject
 90
      499
 91
      501
 93
      436
310
42CC9915DA5C99599C985B595049028333333333333E3BF0000000000000FB0107901411070040501600405405064090741402480A0340
1001
ACAD
1000
AcDbSavedByObjectVersion
1070
     0
  0
ACAD_PROXY_OBJECT
  5
31
102
{ACAD_REACTORS
330
2A
102
}
330
2A
100
AcDbProxyObject
 90
      499
 91
      501
 93
      500
310
424CD108121A5919195B90640502408333333333333E3BF0000000000000FB01079024090700405020000000000001110200405405064090740C02480A0340
1001
ACAD
1000
AcDbSavedByObjectVersion
1070
     0
  0
ACAD_PROXY_OBJECT
  5
30
102
{ACAD_REACTORS
330
2A
102
}
330
2A
100
AcDbProxyObject
 90
      499
 91
      501
 93
      436
310
42CCD915DA5C99599C985B595059028333333333333E3BF0000000000000FB0107901411070040501600405405064090741402480A0340
1001
ACAD
1000
AcDbSavedByObjectVersion
1070
     0
  0
ACAD_PROXY_OBJECT
  5
32
102
{ACAD_REACTORS
330
2A
102
}
330
2A
100
AcDbProxyObject
 90
      499
 91
      501
 93
      388
310
4150985CDA58D07406404333333333333E3BF0000000000000FB0107A41107004050150841D405064090741402480A0350
1001
ACAD
1000
AcDbSavedByObjectVersion
1070
     0
  0
ACAD_PROXY_OBJECT
  5
36
102
{ACAD_REACTORS
330
2A
102
}
330
2A
100
AcDbProxyObject
 90
      499
 91
      501
 93
      428
310
42109C9A59DA1D195B90C409028333333333333E3BF0000000000000FB010790141107004050150841D405064090741402480A029950
1001
ACAD
1000
AcDbSavedByObjectVersion
1070
     0
  0
ACAD_PROXY_OBJECT
  5
3A
102
{ACAD_REACTORS
330
2A
102
}
330
2A
100
AcDbProxyObject
 90
      499
 91
      501
 93
      452
310
42D0DBDB1BDC90DA185B99D95104090240C333333333333E3BF0000000000000FB0108901411070040501508421405064090741402480A0350
1001
ACAD
1000
AcDbSavedByObjectVersion
1070
     0
  0
ACAD_PROXY_OBJECT
  5
34
102
{ACAD_REACTORS
330
2A
102
}
330
2A
100
AcDbProxyObject
 90
      499
 91
      501
 93
      500
310
4290DBDB98D95C1D1D585B10940D028333333333333E3BF0000000000000FB0107902409070040501000000000000111010841D405064090740C02480A0340
1001
ACAD
1000
AcDbSavedByObjectVersion
1070
     0
  0
ACAD_PROXY_OBJECT
  5
35
102
{ACAD_REACTORS
330
2A
102
}
330
2A
100
AcDbProxyObject
 90
      499
 91
      501
 93
      412
310
40D11A5B50B409028333333333333E3BF0000000000000FB010790141107004050150841D405064090741402480A02677FFFFFD0
1001
ACAD
1000
AcDbSavedByObjectVersion
1070
     0
  0
ACAD_PROXY_OBJECT
  5
39
102
{ACAD_REACTORS
330
2A
102
}
330
2A
100
AcDbProxyObject
 90
      499
 91
      501
 93
      444
310
42D19858D95C185D1D195C9B90F409028333333333333E3BF0000000000000FB010790141107004050150841D405064090741402480A0350
1001
ACAD
1000
AcDbSavedByObjectVersion
1070
     0
  0
ACAD_PROXY_OBJECT
  5
2B
102
{ACAD_REACTORS
330
2A
102
}
330
2A
100
AcDbProxyObject
 90
      499
 91
      501
 93
      388
310
41119B185D240901404333333333333E3BF0000000000000F9010740A41107004050150841D405064090741402480A1B50
1001
ACAD
1000
AcDbSavedByObjectVersion
1070
     0
  0
ACAD_PROXY_OBJECT
  5
2C
102
{ACAD_REACTORS
330
2A
102
}
330
2A
100
AcDbProxyObject
 90
      499
 91
      501
 93
      476
310
43519B185D15DA5D1A115919D95CD0140901404333333333333E3BF0000000000000F9010740901411070040501600405405064090741402480A1B50
1001
ACAD
1000
AcDbSavedByObjectVersion
1070
     0
  0
ACAD_PROXY_OBJECT
  5
2D
102
{ACAD_REACTORS
330
2A
102
}
330
2A
100
AcDbProxyObject
 90
      499
 91
      501
 93
      412
310
41D1DBDD5C985D5910240902404333333333333E3BF0000000000000F9010740A411070040501641D405064090741402480A1B50
1001
ACAD
1000
AcDbSavedByObjectVersion
1070
     0
  0
ACAD_PROXY_OBJECT
  5
2E
102
{ACAD_REACTORS
330
2A
102
}
330
2A
100
AcDbProxyObject
 90
      499
 91
      501
 93
      500
310
4411DBDD5C985D5915DA5D1A115919D95CD0340902404333333333333E3BF0000000000000F9010740901411070040501600405405064090741402480A1B50
1001
ACAD
1000
AcDbSavedByObjectVersion
1070
     0
  0
ACAD_PROXY_OBJECT
  5
38
102
{ACAD_REACTORS
330
2A
102
}
330
2A
100
AcDbProxyObject
 90
      499
 91
      501
 93
      444
310
42D31A5B995C185D1D195C9B90E409028333333333333E3BF0000000000000FB010790141107004050750841D405064090741402483A0350
1001
ACAD
1000
AcDbSavedByObjectVersion
1070
     0
  0
ACAD_PROXY_OBJECT
  5
33
102
{ACAD_REACTORS
330
2A
102
}
330
2A
100
AcDbProxyObject
 90
      499
 91
      501
 93
      420
310
425499585B1A5CDD1A58D08409028333333333333E3BF0000000000000FB01079019070040501508421405064090741402480A1B40
1001
ACAD
1000
AcDbSavedByObjectVersion
1070
     0
  0
ACAD_PROXY_OBJECT
  5
37
102
{ACAD_REACTORS
330
2A
102
}
330
2A
100
AcDbProxyObject
 90
      499
 91
      501
 93
      412
310
41D51A1A58DAD95B90D409028333333333333E3BF0000000000000FB010790141107004050150C41D405064090741402480A0350
1001
ACAD
1000
AcDbSavedByObjectVersion
1070
     0
  0
XRECORD
  5
333
102
{ACAD_REACTORS
330
32A
102
}
330
32A
100
AcDbXrecord
 90
        0
  0
XRECORD
  5
349
102
{ACAD_REACTORS
330
32A
102
}
330
32A
100
AcDbXrecord
1000
DSTYLE
1002
{
1070
   171
 70
     2
1070
   143
 40
25.4
1070
   274
 70
     2
1070
    41
 40
0.18
1070
   141
 40
0.09
1070
   271
 70
     4
1070
    43
 40
0.38
1070
   278
 70
    46
1070
    44
 40
0.18
1070
    42
 40
0.0625
1070
   147
 40
0.09
1070
    77
 70
     0
1070
   272
 70
     4
1070
    73
 70
     1
1070
   172
 70
     0
1070
    74
 70
     1
1070
   283
 70
     1
1070
   340
340
11
1070
   140
 40
0.18
1070
   284
 70
     0
1070
    78
 70
     0
1002
}
  0
XRECORD
  5
334
102
{ACAD_REACTORS
330
32A
102
}
330
32A
100
AcDbXrecord
  1
{14DD2C67-A387-415E-BA76-3D79A129DA17}
  0
XRECORD
  5
32D
102
{ACAD_REACTORS
330
32A
102
}
330
32A
100
AcDbXrecord
  1

  0
XRECORD
  5
332
102
{ACAD_REACTORS
330
32A
102
}
330
32A
100
AcDbXrecord
 90
        4
  0
XRECORD
  5
32F
102
{ACAD_REACTORS
330
32A
102
}
330
32A
100
AcDbXrecord
340
1A
  0
XRECORD
  5
331
102
{ACAD_REACTORS
330
32A
102
}
330
32A
100
AcDbXrecord
 90
    10781
  0
XRECORD
  5
330
102
{ACAD_REACTORS
330
32A
102
}
330
32A
100
AcDbXrecord
340
19
  0
XRECORD
  5
336
102
{ACAD_REACTORS
330
32A
102
}
330
32A
100
AcDbXrecord
 40
0.0
  0
XRECORD
  5
339
102
{ACAD_REACTORS
330
32A
102
}
330
32A
100
AcDbXrecord
340
0
  0
XRECORD
  5
33F
102
{ACAD_REACTORS
330
32A
102
}
330
32A
100
AcDbXrecord
 10
0.0
 20
0.0
 30
0.0
  0
XRECORD
  5
33B
102
{ACAD_REACTORS
330
32A
102
}
330
32A
100
AcDbXrecord
 10
0.0
 20
0.0
 30
0.0
  0
XRECORD
  5
33E
102
{ACAD_REACTORS
330
32A
102
}
330
32A
100
AcDbXrecord
 10
0.0
 20
0.0
 30
0.0
  0
XRECORD
  5
33C
102
{ACAD_REACTORS
330
32A
102
}
330
32A
100
AcDbXrecord
 10
0.0
 20
0.0
 30
0.0
  0
XRECORD
  5
33D
102
{ACAD_REACTORS
330
32A
102
}
330
32A
100
AcDbXrecord
 10
0.0
 20
0.0
 30
0.0
  0
XRECORD
  5
33A
102
{ACAD_REACTORS
330
32A
102
}
330
32A
100
AcDbXrecord
 10
0.0
 20
0.0
 30
0.0
  0
XRECORD
  5
337
102
{ACAD_REACTORS
330
32A
102
}
330
32A
100
AcDbXrecord
340
0
  0
XRECORD
  5
338
102
{ACAD_REACTORS
330
32A
102
}
330
32A
100
AcDbXrecord
 70
     0
  0
XRECORD
  5
32E
102
{ACAD_REACTORS
330
32A
102
}
330
32A
100
AcDbXrecord
  1

  0
XRECORD
  5
32B
102
{ACAD_REACTORS
330
32A
102
}
330
32A
100
AcDbXrecord
 90
        1
  0
XRECORD
  5
32C
102
{ACAD_REACTORS
330
32A
102
}
330
32A
100
AcDbXrecord
 90
       70
  0
XRECORD
  5
342
102
{ACAD_REACTORS
330
32A
102
}
330
32A
100
AcDbXrecord
340
0
  0
XRECORD
  5
348
102
{ACAD_REACTORS
330
32A
102
}
330
32A
100
AcDbXrecord
 10
0.0
 20
0.0
 30
0.0
  0
XRECORD
  5
344
102
{ACAD_REACTORS
330
32A
102
}
330
32A
100
AcDbXrecord
 10
0.0
 20
0.0
 30
0.0
  0
XRECORD
  5
347
102
{ACAD_REACTORS
330
32A
102
}
330
32A
100
AcDbXrecord
 10
0.0
 20
0.0
 30
0.0
  0
XRECORD
  5
345
102
{ACAD_REACTORS
330
32A
102
}
330
32A
100
AcDbXrecord
 10
0.0
 20
0.0
 30
0.0
  0
XRECORD
  5
346
102
{ACAD_REACTORS
330
32A
102
}
330
32A
100
AcDbXrecord
 10
0.0
 20
0.0
 30
0.0
  0
XRECORD
  5
343
102
{ACAD_REACTORS
330
32A
102
}
330
32A
100
AcDbXrecord
 10
0.0
 20
0.0
 30
0.0
  0
XRECORD
  5
340
102
{ACAD_REACTORS
330
32A
102
}
330
32A
100
AcDbXrecord
340
0
  0
XRECORD
  5
341
102
{ACAD_REACTORS
330
32A
102
}
330
32A
100
AcDbXrecord
 70
     0
  0
XRECORD
  5
335
102
{ACAD_REACTORS
330
32A
102
}
330
32A
100
AcDbXrecord
  1
{FAEB1C32-E019-11D5-929B-00C0DF256EC4}
  0
DICTIONARYVAR
  5
34D
102
{ACAD_REACTORS
330
34A
102
}
330
34A
100
DictionaryVariables
280
     0
  1
2
  0
DICTIONARYVAR
  5
34E
102
{ACAD_REACTORS
330
34A
102
}
330
34A
100
DictionaryVariables
280
     0
  1
1
  0
DICTIONARY
  5
351
330
3D
100
AcDbDictionary
280
     1
  3
ACAD_XREC_ROUNDTRIP
360
352
  0
DICTIONARY
  5
34F
330
3C
100
AcDbDictionary
280
     1
  3
ACAD_XREC_ROUNDTRIP
360
350
  0
DICTIONARY
  5
353
330
3E
100
AcDbDictionary
280
     1
  3
ACAD_XREC_ROUNDTRIP
360
354
  0
XRECORD
  5
352
102
{ACAD_REACTORS
330
351
102
}
330
351
100
AcDbXrecord
102
MATERIAL
148
0.0
149
0.0
149
0.0
 93
        0
 94
      127
282
     0
 72
     1
 77
     1
171
     1
175
     1
179
     1
273
     0
  0
XRECORD
  5
350
102
{ACAD_REACTORS
330
34F
102
}
330
34F
100
AcDbXrecord
102
MATERIAL
148
0.0
149
0.0
149
0.0
 93
        0
 94
      127
282
     0
 72
     1
 77
     1
171
     1
175
     1
179
     1
273
     0
  0
XRECORD
  5
354
102
{ACAD_REACTORS
330
353
102
}
330
353
100
AcDbXrecord
102
MATERIAL
148
0.0
149
0.0
149
0.0
 93
        0
 94
      127
282
     0
 72
     1
 77
     1
171
     1
175
     1
179
     1
273
     0
  0
ENDSEC
  0
EOF
