  0
SECTION
  2
HEADER
  9
$ACADVER
  1
AC1014
  9
$ACADMAINTVER
 70
     9
  9
$DWGCODEPAGE
  3
ANSI_1252
  9
$INSBASE
 10
0.0
 20
0.0
 30
0.0
  9
$EXTMIN
 10
-0.5
 20
-0.5
 30
-0.5
  9
$EXTMAX
 10
5.0
 20
5.0
 30
5.0
  9
$LIMMIN
 10
-0.5
 20
-0.5
  9
$LIMMAX
 10
5.0
 20
5.0
  9
$ORTHOMODE
 70
     0
  9
$REGENMODE
 70
     1
  9
$FILLMODE
 70
     1
  9
$QTEXTMODE
 70
     0
  9
$MIRRTEXT
 70
     1
  9
$DRAGMODE
 70
     2
  9
$LTSCALE
 40
1.0
  9
$OSMODE
 70
    37
  9
$ATTMODE
 70
     1
  9
$TEXTSIZE
 40
0.2
  9
$TRACEWID
 40
0.05
  9
$TEXTSTYLE
  7
STANDARD
  9
$CLAYER
  8
0
  9
$CELTYPE
  6
BYLAYER
  9
$CECOLOR
 62
   256
  9
$CELTSCALE
 40
1.0
  9
$DELOBJ
 70
     1
  9
$DISPSILH
 70
     0
  9
$DIMSCALE
 40
1.0
  9
$DIMASZ
 40
0.18
  9
$DIMEXO
 40
0.0625
  9
$DIMDLI
 40
0.38
  9
$DIMRND
 40
0.0
  9
$DIMDLE
 40
0.0
  9
$DIMEXE
 40
0.18
  9
$DIMTP
 40
0.0
  9
$DIMTM
 40
0.0
  9
$DIMTXT
 40
0.18
  9
$DIMCEN
 40
0.09
  9
$DIMTSZ
 40
0.0
  9
$DIMTOL
 70
     0
  9
$DIMLIM
 70
     0
  9
$DIMTIH
 70
     1
  9
$DIMTOH
 70
     1
  9
$DIMSE1
 70
     0
  9
$DIMSE2
 70
     0
  9
$DIMTAD
 70
     0
  9
$DIMZIN
 70
     0
  9
$DIMBLK
  1

  9
$DIMASO
 70
     1
  9
$DIMSHO
 70
     1
  9
$DIMPOST
  1

  9
$DIMAPOST
  1

  9
$DIMALT
 70
     0
  9
$DIMALTD
 70
     2
  9
$DIMALTF
 40
25.4
  9
$DIMLFAC
 40
1.0
  9
$DIMTOFL
 70
     0
  9
$DIMTVP
 40
0.0
  9
$DIMTIX
 70
     0
  9
$DIMSOXD
 70
     0
  9
$DIMSAH
 70
     0
  9
$DIMBLK1
  1

  9
$DIMBLK2
  1

  9
$DIMSTYLE
  2
STANDARD
  9
$DIMCLRD
 70
     0
  9
$DIMCLRE
 70
     0
  9
$DIMCLRT
 70
     0
  9
$DIMTFAC
 40
1.0
  9
$DIMGAP
 40
0.09
  9
$DIMJUST
 70
     0
  9
$DIMSD1
 70
     0
  9
$DIMSD2
 70
     0
  9
$DIMTOLJ
 70
     1
  9
$DIMTZIN
 70
     0
  9
$DIMALTZ
 70
     0
  9
$DIMALTTZ
 70
     0
  9
$DIMFIT
 70
     3
  9
$DIMUPT
 70
     0
  9
$DIMUNIT
 70
     2
  9
$DIMDEC
 70
     4
  9
$DIMTDEC
 70
     4
  9
$DIMALTU
 70
     2
  9
$DIMALTTD
 70
     2
  9
$DIMTXSTY
  7
STANDARD
  9
$DIMAUNIT
 70
     0
  9
$LUNITS
 70
     2
  9
$LUPREC
 70
     4
  9
$SKETCHINC
 40
0.1
  9
$FILLETRAD
 40
0.5
  9
$AUNITS
 70
     0
  9
$AUPREC
 70
     0
  9
$MENU
  1
.
  9
$ELEVATION
 40
0.0
  9
$PELEVATION
 40
0.0
  9
$THICKNESS
 40
0.0
  9
$LIMCHECK
 70
     0
  9
$CHAMFERA
 40
0.0
  9
$CHAMFERB
 40
0.0
  9
$CHAMFERC
 40
0.0
  9
$CHAMFERD
 40
0.0
  9
$SKPOLY
 70
     0
  9
$TDCREATE
 40
2456752.420668576
  9
$TDUPDATE
 40
2456752.420695706
  9
$TDINDWG
 40
0.0000000116
  9
$TDUSRTIMER
 40
0.0000000116
  9
$USRTIMER
 70
     1
  9
$ANGBASE
 50
0.0
  9
$ANGDIR
 70
     0
  9
$PDMODE
 70
     0
  9
$PDSIZE
 40
0.0
  9
$PLINEWID
 40
0.0
  9
$COORDS
 70
     1
  9
$SPLFRAME
 70
     0
  9
$SPLINETYPE
 70
     6
  9
$SPLINESEGS
 70
     8
  9
$ATTDIA
 70
     0
  9
$ATTREQ
 70
     1
  9
$HANDLING
 70
     1
  9
$HANDSEED
  5
179
  9
$SURFTAB1
 70
     6
  9
$SURFTAB2
 70
     6
  9
$SURFTYPE
 70
     6
  9
$SURFU
 70
     6
  9
$SURFV
 70
     6
  9
$UCSNAME
  2

  9
$UCSORG
 10
0.0
 20
0.0
 30
0.0
  9
$UCSXDIR
 10
1.0
 20
0.0
 30
0.0
  9
$UCSYDIR
 10
0.0
 20
1.0
 30
0.0
  9
$PUCSNAME
  2

  9
$PUCSORG
 10
0.0
 20
0.0
 30
0.0
  9
$PUCSXDIR
 10
1.0
 20
0.0
 30
0.0
  9
$PUCSYDIR
 10
0.0
 20
1.0
 30
0.0
  9
$USERI1
 70
     0
  9
$USERI2
 70
     0
  9
$USERI3
 70
     0
  9
$USERI4
 70
     0
  9
$USERI5
 70
     0
  9
$USERR1
 40
0.0
  9
$USERR2
 40
0.0
  9
$USERR3
 40
0.0
  9
$USERR4
 40
0.0
  9
$USERR5
 40
0.0
  9
$WORLDVIEW
 70
     1
  9
$SHADEDGE
 70
     3
  9
$SHADEDIF
 70
    70
  9
$TILEMODE
 70
     1
  9
$MAXACTVP
 70
    64
  9
$PINSBASE
 10
0.0
 20
0.0
 30
0.0
  9
$PLIMCHECK
 70
     0
  9
$PEXTMIN
 10
-0.5
 20
-0.5
 30
-0.5
  9
$PEXTMAX
 10
5.0
 20
5.0
 30
5.0
  9
$PLIMMIN
 10
-0.5
 20
-0.5
  9
$PLIMMAX
 10
5.0
 20
5.0
  9
$UNITMODE
 70
     0
  9
$VISRETAIN
 70
     1
  9
$PLINEGEN
 70
     0
  9
$PSLTSCALE
 70
     1
  9
$TREEDEPTH
 70
  3020
  9
$PICKSTYLE
 70
     1
  9
$CMLSTYLE
  2
STANDARD
  9
$CMLJUST
 70
     0
  9
$CMLSCALE
 40
1.0
  9
$PROXYGRAPHICS
 70
     1
  9
$MEASUREMENT
 70
     1
  0
ENDSEC
  0
SECTION
  2
CLASSES
  0
CLASS
  1
ACDBDICTIONARYWDFLT
  2
AcDbDictionaryWithDefault
  3
ObjectDBX Classes
 90
        0
280
     0
281
     0
  0
CLASS
  1
VISUALSTYLE
  2
AcDbVisualStyle
  3
ObjectDBX Classes
 90
     4095
280
     0
281
     0
  0
CLASS
  1
MATERIAL
  2
AcDbMaterial
  3
ObjectDBX Classes
 90
     1153
280
     0
281
     0
  0
CLASS
  1
SCALE
  2
AcDbScale
  3
ObjectDBX Classes
 90
     1153
280
     0
281
     0
  0
CLASS
  1
SUN
  2
AcDbSun
  3
SCENEOE
 90
     1153
280
     0
281
     0
  0
CLASS
  1
DICTIONARYVAR
  2
AcDbDictionaryVar
  3
ObjectDBX Classes
 90
        0
280
     0
281
     0
  0
CLASS
  1
XRECORD
  2
AcDbXrecord
  3
ObjectDBX Classes
 90
        0
280
     0
281
     0
  0
CLASS
  1
LWPOLYLINE
  2
AcDbPolyline
  3
ObjectDBX Classes
 90
        0
280
     0
281
     1
  0
CLASS
  1
HATCH
  2
AcDbHatch
  3
ObjectDBX Classes
 90
        0
280
     0
281
     1
  0
CLASS
  1
ACDBPLACEHOLDER
  2
AcDbPlaceHolder
  3
ObjectDBX Classes
 90
        0
280
     0
281
     0
  0
CLASS
  1
LAYOUT
  2
AcDbLayout
  3
ObjectDBX Classes
 90
        0
280
     0
281
     0
  0
ENDSEC
  0
SECTION
  2
TABLES
  0
TABLE
  2
VPORT
  5
8
330
0
100
AcDbSymbolTable
 70
    17
  0
VPORT
  5
29
330
8
100
AcDbSymbolTableRecord
100
AcDbViewportTableRecord
  2
DUMMY
 70
     0
 10
0.0
 20
0.0
 11
1.0
 21
1.0
 12
10.429907
 22
4.5
 13
0.0
 23
0.0
 14
0.5
 24
0.5
 15
0.5
 25
0.5
 16
0.0
 26
0.0
 36
1.0
 17
0.0
 27
0.0
 37
0.0
 40
9.0
 41
1.972973
 42
50.0
 43
0.0
 44
0.0
 50
0.0
 51
0.0
 71
     0
 72
   100
 73
     1
 74
     3
 75
     0
 76
     0
 77
     0
 78
     0
  0
VPORT
  5
139
330
8
100
AcDbSymbolTableRecord
100
AcDbViewportTableRecord
  2
*ACTIVE
 70
     0
 10
0.0
 20
0.0
 11
1.0
 21
1.0
 12
360.315129
 22
152.976266
 13
0.0
 23
0.0
 14
0.5
 24
0.5
 15
0.5
 25
0.5
 16
0.0
 26
0.0
 36
1.0
 17
0.0
 27
0.0
 37
0.0
 40
254.0
 41
0.069908
 42
50.0
 43
919.443075
 44
-919.443075
 50
0.0
 51
0.0
 71
     0
 72
   100
 73
     1
 74
     3
 75
     0
 76
     0
 77
     0
 78
     0
  0
VPORT
  5
13B
330
8
100
AcDbSymbolTableRecord
100
AcDbViewportTableRecord
  2
L1
 70
     0
 10
0.0
 20
0.0
 11
1.0
 21
1.0
 12
360.315129
 22
152.976266
 13
0.0
 23
0.0
 14
0.5
 24
0.5
 15
0.5
 25
0.5
 16
0.0
 26
0.0
 36
1.0
 17
0.0
 27
0.0
 37
0.0
 40
254.0
 41
0.069908
 42
50.0
 43
919.443075
 44
-919.443075
 50
0.0
 51
0.0
 71
     0
 72
   100
 73
     1
 74
     3
 75
     0
 76
     0
 77
     0
 78
     0
  0
VPORT
  5
13C
330
8
100
AcDbSymbolTableRecord
100
AcDbViewportTableRecord
  2
L2
 70
     0
 10
0.0
 20
0.0
 11
0.5
 21
1.0
 12
0.0
 22
0.0
 13
0.0
 23
0.0
 14
0.5
 24
0.5
 15
0.5
 25
0.5
 16
0.0
 26
-1.0
 36
0.0
 17
0.0
 27
0.0
 37
0.0
 40
1319.822715
 41
0.013454
 42
50.0
 43
672.020833
 44
-672.020833
 50
0.0
 51
0.0
 71
     0
 72
   100
 73
     1
 74
     3
 75
     0
 76
     0
 77
     0
 78
     0
  0
VPORT
  5
13D
330
8
100
AcDbSymbolTableRecord
100
AcDbViewportTableRecord
  2
L2
 70
     0
 10
0.5
 20
0.0
 11
1.0
 21
1.0
 12
0.0
 22
0.0
 13
0.0
 23
0.0
 14
0.5
 24
0.5
 15
0.5
 25
0.5
 16
1.0
 26
0.0
 36
0.0
 17
0.0
 27
0.0
 37
0.0
 40
1319.822715
 41
0.013454
 42
50.0
 43
672.020833
 44
-672.020833
 50
0.0
 51
0.0
 71
     0
 72
   100
 73
     1
 74
     3
 75
     0
 76
     0
 77
     0
 78
     0
  0
VPORT
  5
13E
330
8
100
AcDbSymbolTableRecord
100
AcDbViewportTableRecord
  2
L3
 70
     0
 10
0.0
 20
0.5
 11
1.0
 21
1.0
 12
360.315129
 22
152.976266
 13
0.0
 23
0.0
 14
0.5
 24
0.5
 15
0.5
 25
0.5
 16
0.0
 26
0.0
 36
1.0
 17
0.0
 27
0.0
 37
0.0
 40
254.0
 41
0.069908
 42
50.0
 43
919.443075
 44
-919.443075
 50
0.0
 51
0.0
 71
     0
 72
   100
 73
     1
 74
     3
 75
     0
 76
     0
 77
     0
 78
     0
  0
VPORT
  5
13F
330
8
100
AcDbSymbolTableRecord
100
AcDbViewportTableRecord
  2
L3
 70
     0
 10
0.0
 20
0.0
 11
1.0
 21
0.5
 12
0.0
 22
0.0
 13
0.0
 23
0.0
 14
0.5
 24
0.5
 15
0.5
 25
0.5
 16
0.0
 26
-1.0
 36
0.0
 17
0.0
 27
0.0
 37
0.0
 40
1319.822715
 41
0.013454
 42
50.0
 43
672.020833
 44
-672.020833
 50
0.0
 51
0.0
 71
     0
 72
   100
 73
     1
 74
     3
 75
     0
 76
     0
 77
     0
 78
     0
  0
VPORT
  5
140
330
8
100
AcDbSymbolTableRecord
100
AcDbViewportTableRecord
  2
L4
 70
     0
 10
0.0
 20
0.5
 11
0.5
 21
1.0
 12
360.315129
 22
152.976266
 13
0.0
 23
0.0
 14
0.5
 24
0.5
 15
0.5
 25
0.5
 16
0.0
 26
0.0
 36
1.0
 17
0.0
 27
0.0
 37
0.0
 40
254.0
 41
0.069908
 42
50.0
 43
919.443075
 44
-919.443075
 50
0.0
 51
0.0
 71
     0
 72
   100
 73
     1
 74
     3
 75
     0
 76
     0
 77
     0
 78
     0
  0
VPORT
  5
141
330
8
100
AcDbSymbolTableRecord
100
AcDbViewportTableRecord
  2
L4
 70
     0
 10
0.0
 20
0.0
 11
0.5
 21
0.5
 12
0.0
 22
0.0
 13
0.0
 23
0.0
 14
0.5
 24
0.5
 15
0.5
 25
0.5
 16
0.0
 26
-1.0
 36
0.0
 17
0.0
 27
0.0
 37
0.0
 40
1319.822715
 41
0.013454
 42
50.0
 43
672.020833
 44
-672.020833
 50
0.0
 51
0.0
 71
     0
 72
   100
 73
     1
 74
     3
 75
     0
 76
     0
 77
     0
 78
     0
  0
VPORT
  5
142
330
8
100
AcDbSymbolTableRecord
100
AcDbViewportTableRecord
  2
L4
 70
     0
 10
0.5
 20
0.0
 11
1.0
 21
0.5
 12
0.0
 22
0.0
 13
0.0
 23
0.0
 14
0.5
 24
0.5
 15
0.5
 25
0.5
 16
1.0
 26
0.0
 36
0.0
 17
0.0
 27
0.0
 37
0.0
 40
1319.822715
 41
0.013454
 42
50.0
 43
672.020833
 44
-672.020833
 50
0.0
 51
0.0
 71
     0
 72
   100
 73
     1
 74
     3
 75
     0
 76
     0
 77
     0
 78
     0
  0
VPORT
  5
143
330
8
100
AcDbSymbolTableRecord
100
AcDbViewportTableRecord
  2
L4
 70
     0
 10
0.5
 20
0.5
 11
1.0
 21
1.0
 12
0.0
 22
0.0
 13
0.0
 23
0.0
 14
0.5
 24
0.5
 15
0.5
 25
0.5
 16
0.5773502691896258
 26
-0.5773502691896258
 36
0.5773502691896258
 17
0.0
 27
0.0
 37
0.0
 40
1285.020866
 41
0.013818
 42
50.0
 43
667.141407
 44
-667.141407
 50
0.0
 51
0.0
 71
     0
 72
   100
 73
     1
 74
     3
 75
     0
 76
     0
 77
     0
 78
     0
  0
VPORT
  5
144
330
8
100
AcDbSymbolTableRecord
100
AcDbViewportTableRecord
  2
L6
 70
     0
 10
0.0
 20
0.5
 11
0.333333
 21
1.0
 12
0.0
 22
0.0
 13
0.0
 23
0.0
 14
0.5
 24
0.5
 15
0.5
 25
0.5
 16
0.7188730927569433
 26
-0.5850486126764433
 36
0.3754192287502549
 17
0.0
 27
0.0
 37
0.0
 40
1357.434192
 41
0.013081
 42
50.0
 43
701.839477
 44
-701.839477
 50
0.0
 51
0.0
 71
     0
 72
   100
 73
     1
 74
     3
 75
     0
 76
     0
 77
     0
 78
     0
  0
VPORT
  5
145
330
8
100
AcDbSymbolTableRecord
100
AcDbViewportTableRecord
  2
L6
 70
     0
 10
0.0
 20
0.0
 11
0.333333
 21
0.5
 12
0.0
 22
0.0
 13
0.0
 23
0.0
 14
0.5
 24
0.5
 15
0.5
 25
0.5
 16
-1.0
 26
0.0
 36
0.0
 17
0.0
 27
0.0
 37
0.0
 40
1319.822715
 41
0.013454
 42
50.0
 43
672.020833
 44
-672.020833
 50
0.0
 51
0.0
 71
     0
 72
   100
 73
     1
 74
     3
 75
     0
 76
     0
 77
     0
 78
     0
  0
VPORT
  5
146
330
8
100
AcDbSymbolTableRecord
100
AcDbViewportTableRecord
  2
L6
 70
     0
 10
0.333333
 20
0.5
 11
0.666667
 21
1.0
 12
360.315129
 22
152.976266
 13
0.0
 23
0.0
 14
0.5
 24
0.5
 15
0.5
 25
0.5
 16
0.0
 26
0.0
 36
1.0
 17
0.0
 27
0.0
 37
0.0
 40
254.0
 41
0.069908
 42
50.0
 43
919.443075
 44
-919.443075
 50
0.0
 51
0.0
 71
     0
 72
   100
 73
     1
 74
     3
 75
     0
 76
     0
 77
     0
 78
     0
  0
VPORT
  5
147
330
8
100
AcDbSymbolTableRecord
100
AcDbViewportTableRecord
  2
L6
 70
     0
 10
0.333333
 20
0.0
 11
0.666667
 21
0.5
 12
0.0
 22
0.0
 13
0.0
 23
0.0
 14
0.5
 24
0.5
 15
0.5
 25
0.5
 16
0.0
 26
-1.0
 36
0.0
 17
0.0
 27
0.0
 37
0.0
 40
1319.822715
 41
0.013454
 42
50.0
 43
672.020833
 44
-672.020833
 50
0.0
 51
0.0
 71
     0
 72
   100
 73
     1
 74
     3
 75
     0
 76
     0
 77
     0
 78
     0
  0
VPORT
  5
148
330
8
100
AcDbSymbolTableRecord
100
AcDbViewportTableRecord
  2
L6
 70
     0
 10
0.666667
 20
0.5
 11
1.0
 21
1.0
 12
0.0
 22
0.0
 13
0.0
 23
0.0
 14
0.5
 24
0.5
 15
0.5
 25
0.5
 16
0.5773502691896258
 26
-0.5773502691896258
 36
0.5773502691896258
 17
0.0
 27
0.0
 37
0.0
 40
1285.020866
 41
0.013818
 42
50.0
 43
667.141407
 44
-667.141407
 50
0.0
 51
0.0
 71
     0
 72
   100
 73
     1
 74
     3
 75
     0
 76
     0
 77
     0
 78
     0
  0
VPORT
  5
149
330
8
100
AcDbSymbolTableRecord
100
AcDbViewportTableRecord
  2
L6
 70
     0
 10
0.666667
 20
0.0
 11
1.0
 21
0.5
 12
0.0
 22
0.0
 13
0.0
 23
0.0
 14
0.5
 24
0.5
 15
0.5
 25
0.5
 16
1.0
 26
0.0
 36
0.0
 17
0.0
 27
0.0
 37
0.0
 40
1319.822715
 41
0.013454
 42
50.0
 43
672.020833
 44
-672.020833
 50
0.0
 51
0.0
 71
     0
 72
   100
 73
     1
 74
     3
 75
     0
 76
     0
 77
     0
 78
     0
  0
ENDTAB
  0
TABLE
  2
LTYPE
  5
5
330
0
100
AcDbSymbolTable
 70
     6
  0
LTYPE
  5
14
330
5
100
AcDbSymbolTableRecord
100
AcDbLinetypeTableRecord
  2
BYBLOCK
 70
     0
  3

 72
    65
 73
     0
 40
0.0
  0
LTYPE
  5
15
330
5
100
AcDbSymbolTableRecord
100
AcDbLinetypeTableRecord
  2
BYLAYER
 70
     0
  3

 72
    65
 73
     0
 40
0.0
  0
LTYPE
  5
16
330
5
100
AcDbSymbolTableRecord
100
AcDbLinetypeTableRecord
  2
CONTINUOUS
 70
     0
  3
Solid line
 72
    65
 73
     0
 40
0.0
  0
LTYPE
  5
6A
330
5
100
AcDbSymbolTableRecord
100
AcDbLinetypeTableRecord
  2
CENTER
 70
     0
  3
____ _ ____ _ ____ _ ____
 72
    65
 73
     4
 40
47.4
 49
22.0
 74
     4
 75
     0
340
0
 46
0.0
 50
0.0
 44
0.0
 45
0.0
 49
-8.5
 74
     4
 75
     0
340
0
 46
0.0
 50
0.0
 44
0.0
 45
0.0
 49
8.5
 74
     4
 75
     0
340
0
 46
0.0
 50
0.0
 44
0.0
 45
0.0
 49
-8.5
 74
     4
 75
     0
340
0
 46
0.0
 50
0.0
 44
0.0
 45
0.0
  0
LTYPE
  5
6B
330
5
100
AcDbSymbolTableRecord
100
AcDbLinetypeTableRecord
  2
DASHDOT
 70
     0
  3
_._._._._._._._._._._._._._._._.
 72
    65
 73
     4
 40
70.0
 49
31.0
 74
     4
 75
     0
340
0
 46
0.0
 50
0.0
 44
0.0
 45
0.0
 49
-13.0
 74
     4
 75
     0
340
0
 46
0.0
 50
0.0
 44
0.0
 45
0.0
 49
13.0
 74
     4
 75
     0
340
0
 46
0.0
 50
0.0
 44
0.0
 45
0.0
 49
-13.0
 74
     4
 75
     0
340
0
 46
0.0
 50
0.0
 44
0.0
 45
0.0
  0
LTYPE
  5
6C
330
5
100
AcDbSymbolTableRecord
100
AcDbLinetypeTableRecord
  2
DASHED
 70
     0
  3
__ __ __ __ __ __ __ __ __
 72
    65
 73
     2
 40
25.72
 49
12.86
 74
     4
 75
     0
340
0
 46
0.0
 50
0.0
 44
0.0
 45
0.0
 49
-12.86
 74
     4
 75
     0
340
0
 46
0.0
 50
0.0
 44
0.0
 45
0.0
  0
LTYPE
  5
6D
330
5
100
AcDbSymbolTableRecord
100
AcDbLinetypeTableRecord
  2
DOT
 70
     0
  3
.........................
 72
    65
 73
     2
 40
10.0
 49
0.0
 74
     4
 75
     0
340
0
 46
0.0
 50
0.0
 44
0.0
 45
0.0
 49
-10.0
 74
     4
 75
     0
340
0
 46
0.0
 50
0.0
 44
0.0
 45
0.0
  0
LTYPE
  5
6E
330
5
100
AcDbSymbolTableRecord
100
AcDbLinetypeTableRecord
  2
PHANTOM
 70
     0
  3
____ _ _ ____ _ _ _____ _ _ ____
 72
    65
 73
     6
 40
50.5
 49
18.0
 74
     4
 75
     0
340
0
 46
0.0
 50
0.0
 44
0.0
 45
0.0
 49
-6.5
 74
     4
 75
     0
340
0
 46
0.0
 50
0.0
 44
0.0
 45
0.0
 49
6.5
 74
     4
 75
     0
340
0
 46
0.0
 50
0.0
 44
0.0
 45
0.0
 49
-6.5
 74
     4
 75
     0
340
0
 46
0.0
 50
0.0
 44
0.0
 45
0.0
 49
6.5
 74
     4
 75
     0
340
0
 46
0.0
 50
0.0
 44
0.0
 45
0.0
 49
-6.5
 74
     4
 75
     0
340
0
 46
0.0
 50
0.0
 44
0.0
 45
0.0
  0
ENDTAB
  0
TABLE
  2
LAYER
  5
2
330
0
100
AcDbSymbolTable
 70
     3
  0
LAYER
  5
10
330
2
100
AcDbSymbolTableRecord
100
AcDbLayerTableRecord
  2
0
 70
     0
 62
     7
  6
CONTINUOUS
  0
LAYER
  5
70
330
2
100
AcDbSymbolTableRecord
100
AcDbLayerTableRecord
  2
2
 70
     0
 62
     7
  6
CONTINUOUS
  0
LAYER
  5
12F
330
2
100
AcDbSymbolTableRecord
100
AcDbLayerTableRecord
  2
1
 70
     0
 62
     7
  6
CONTINUOUS
  0
ENDTAB
  0
TABLE
  2
STYLE
  5
3
330
0
100
AcDbSymbolTable
 70
     2
  0
STYLE
  5
11
330
3
100
AcDbSymbolTableRecord
100
AcDbTextStyleTableRecord
  2
STANDARD
 70
     0
 40
0.0
 41
1.0
 50
0.0
 71
     0
 42
0.2
  3
txt
  4

  0
STYLE
  5
12E
330
3
100
AcDbSymbolTableRecord
100
AcDbTextStyleTableRecord
  2
ISO-1
 70
     0
 40
0.0
 41
1.0
 50
0.0
 71
     0
 42
0.2
  3
LT_41171.ttf
  4

1001
ACAD
1000
LT_41171.ttf
1071
        0
  0
ENDTAB
  0
TABLE
  2
VIEW
  5
6
330
0
100
AcDbSymbolTable
 70
     8
  0
VIEW
  5
131
330
6
100
AcDbSymbolTableRecord
100
AcDbViewTableRecord
  2
TOP
 70
     0
 40
254.0
 10
360.315129
 20
152.976266
 41
254.0
 11
0.0
 21
0.0
 31
1.0
 12
0.0
 22
0.0
 32
0.0
 42
50.0
 43
919.443075
 44
-919.443075
 50
0.0
 71
     0
  0
VIEW
  5
132
330
6
100
AcDbSymbolTableRecord
100
AcDbViewTableRecord
  2
FRONT
 70
     0
 40
1319.822715
 10
0.0
 20
0.0
 41
254.0
 11
0.0
 21
-1.0
 31
0.0
 12
0.0
 22
0.0
 32
0.0
 42
50.0
 43
672.020833
 44
-672.020833
 50
0.0
 71
     0
  0
VIEW
  5
133
330
6
100
AcDbSymbolTableRecord
100
AcDbViewTableRecord
  2
RIGHT
 70
     0
 40
1319.822715
 10
0.0
 20
0.0
 41
254.0
 11
1.0
 21
0.0
 31
0.0
 12
0.0
 22
0.0
 32
0.0
 42
50.0
 43
672.020833
 44
-672.020833
 50
0.0
 71
     0
  0
VIEW
  5
134
330
6
100
AcDbSymbolTableRecord
100
AcDbViewTableRecord
  2
BACK
 70
     0
 40
1319.822715
 10
0.0
 20
0.0
 41
254.0
 11
0.0
 21
1.0
 31
0.0
 12
0.0
 22
0.0
 32
0.0
 42
50.0
 43
672.020833
 44
-672.020833
 50
0.0
 71
     0
  0
VIEW
  5
135
330
6
100
AcDbSymbolTableRecord
100
AcDbViewTableRecord
  2
BOTTOM
 70
     0
 40
254.0
 10
0.0
 20
0.0
 41
254.0
 11
0.0
 21
0.0
 31
-1.0
 12
0.0
 22
0.0
 32
0.0
 42
50.0
 43
659.911358
 44
-659.911358
 50
180.0
 71
     0
  0
VIEW
  5
136
330
6
100
AcDbSymbolTableRecord
100
AcDbViewTableRecord
  2
LEFT
 70
     0
 40
1319.822715
 10
0.0
 20
0.0
 41
254.0
 11
-1.0
 21
0.0
 31
0.0
 12
0.0
 22
0.0
 32
0.0
 42
50.0
 43
672.020833
 44
-672.020833
 50
0.0
 71
     0
  0
VIEW
  5
137
330
6
100
AcDbSymbolTableRecord
100
AcDbViewTableRecord
  2
ISOMETRIC
 70
     0
 40
1285.020866
 10
0.0
 20
0.0
 41
359.210245
 11
0.5773502691896258
 21
-0.5773502691896258
 31
0.5773502691896258
 12
0.0
 22
0.0
 32
0.0
 42
50.0
 43
667.141407
 44
-667.141407
 50
0.0
 71
     0
  0
VIEW
  5
138
330
6
100
AcDbSymbolTableRecord
100
AcDbViewTableRecord
  2
TRIMETRIC
 70
     0
 40
1357.434192
 10
0.0
 20
0.0
 41
357.33321
 11
0.7188730927569433
 21
-0.5850486126764433
 31
0.3754192287502549
 12
0.0
 22
0.0
 32
0.0
 42
50.0
 43
701.839477
 44
-701.839477
 50
0.0
 71
     0
  0
ENDTAB
  0
TABLE
  2
UCS
  5
7
330
0
100
AcDbSymbolTable
 70
     0
  0
ENDTAB
  0
TABLE
  2
APPID
  5
9
330
0
100
AcDbSymbolTable
 70
     1
  0
APPID
  5
12
330
9
100
AcDbSymbolTableRecord
100
AcDbRegAppTableRecord
  2
ACAD
 70
     0
  0
ENDTAB
  0
TABLE
  2
DIMSTYLE
  5
A
330
0
100
AcDbSymbolTable
 70
     1
  0
DIMSTYLE
105
27
330
A
100
AcDbSymbolTableRecord
100
AcDbDimStyleTableRecord
  2
STANDARD
 70
     0
  3

  4

  5

  6

  7

 40
1.0
 41
0.18
 42
0.0625
 43
0.38
 44
0.18
 45
0.0
 46
0.0
 47
0.0
 48
0.0
140
0.18
141
0.09
142
0.0
143
25.4
144
1.0
145
0.0
146
1.0
147
0.09
 71
     0
 72
     0
 73
     1
 74
     1
 75
     0
 76
     0
 77
     0
 78
     0
170
     0
171
     2
172
     0
173
     0
174
     0
175
     0
176
     0
177
     0
178
     0
270
     2
271
     4
272
     4
273
     2
274
     2
340
11
275
     0
280
     0
281
     0
282
     0
283
     1
284
     0
285
     0
286
     0
287
     3
288
     0
  0
ENDTAB
  0
TABLE
  2
BLOCK_RECORD
  5
1
330
0
100
AcDbSymbolTable
 70
     1
  0
BLOCK_RECORD
  5
1F
330
1
100
AcDbSymbolTableRecord
100
AcDbBlockTableRecord
  2
*MODEL_SPACE
  0
BLOCK_RECORD
  5
1B
330
1
100
AcDbSymbolTableRecord
100
AcDbBlockTableRecord
  2
*PAPER_SPACE
  0
ENDTAB
  0
ENDSEC
  0
SECTION
  2
BLOCKS
  0
BLOCK
  5
20
330
1F
100
AcDbEntity
  8
0
100
AcDbBlockBegin
  2
*MODEL_SPACE
 70
     0
 10
0.0
 20
0.0
 30
0.0
  3
*MODEL_SPACE
  1

  0
ENDBLK
  5
21
330
1F
100
AcDbEntity
  8
0
100
AcDbBlockEnd
  0
BLOCK
  5
1C
330
1B
100
AcDbEntity
 67
     1
  8
0
100
AcDbBlockBegin
  2
*PAPER_SPACE
 70
     0
 10
0.0
 20
0.0
 30
0.0
  3
*PAPER_SPACE
  1

  0
ENDBLK
  5
1D
330
1B
100
AcDbEntity
 67
     1
  8
0
100
AcDbBlockEnd
  0
ENDSEC
  0
SECTION
  2
ENTITIES
  0
LINE
  5
6F
330
1F
100
AcDbEntity
  8
2
  6
CENTER
 62
   150
100
AcDbLine
 10
208.658616
 20
229.623807
 30
0.0
 11
208.658616
 21
220.810485
 31
0.0
  0
LINE
  5
71
330
1F
100
AcDbEntity
  8
2
  6
CONTINUOUS
 62
   150
100
AcDbLine
 10
249.858616
 20
92.754684
 30
0.0
 11
245.858616
 21
90.445283
 31
0.0
  0
LINE
  5
72
330
1F
100
AcDbEntity
  8
2
  6
CONTINUOUS
 62
   150
100
AcDbLine
 10
228.658616
 20
219.489728
 30
0.0
 11
215.784819
 21
219.489728
 31
0.0
  0
LINE
  5
73
330
1F
100
AcDbEntity
  8
2
  6
CENTER
 62
   150
100
AcDbLine
 10
249.858616
 20
209.892268
 30
0.0
 11
249.858616
 21
222.510768
 31
0.0
  0
LINE
  5
74
330
1F
100
AcDbEntity
  8
2
  6
CENTER
 62
   150
100
AcDbLine
 10
249.858616
 20
80.808926
 30
0.0
 11
249.858616
 21
88.135882
 31
0.0
  0
LINE
  5
75
330
1F
100
AcDbEntity
  8
2
  6
CONTINUOUS
 62
   150
100
AcDbLine
 10
167.458616
 20
83.51708
 30
0.0
 11
163.458616
 21
85.826481
 31
0.0
  0
LINE
  5
76
330
1F
100
AcDbEntity
  8
2
  6
CONTINUOUS
 62
   150
100
AcDbLine
 10
245.858616
 20
90.445283
 30
0.0
 11
245.858616
 21
85.826481
 31
0.0
  0
LINE
  5
77
330
1F
100
AcDbEntity
  8
2
  6
CONTINUOUS
 62
   150
100
AcDbLine
 10
149.058616
 20
69.335882
 30
0.0
 11
208.658616
 21
69.335882
 31
0.0
  0
LINE
  5
78
330
1F
100
AcDbEntity
  8
2
  6
CONTINUOUS
 62
   150
100
AcDbLine
 10
267.258616
 20
219.489728
 30
0.0
 11
150.058616
 21
219.489728
 31
0.0
  0
LINE
  5
79
330
1F
100
AcDbEntity
  8
2
  6
CENTER
 62
   150
100
AcDbLine
 10
208.658616
 20
225.745964
 30
0.0
 11
208.658616
 21
209.203943
 31
0.0
  0
LINE
  5
7A
330
1F
100
AcDbEntity
  8
2
  6
CONTINUOUS
 62
   150
100
AcDbLine
 10
268.258616
 20
105.335882
 30
0.0
 11
208.658616
 21
105.335882
 31
0.0
  0
LINE
  5
7B
330
1F
100
AcDbEntity
  8
2
  6
CENTER
 62
   150
100
AcDbLine
 10
278.658616
 20
232.812348
 30
0.0
 11
278.658616
 21
205.868326
 31
0.0
  0
LINE
  5
7C
330
1F
100
AcDbEntity
  8
2
  6
CONTINUOUS
 62
   150
100
AcDbLine
 10
171.458616
 20
90.445283
 30
0.0
 11
171.458616
 21
85.826481
 31
0.0
  0
LINE
  5
7D
330
1F
100
AcDbEntity
  8
2
  6
CONTINUOUS
 62
   150
100
AcDbLine
 10
267.258616
 20
219.489728
 30
0.0
 11
267.258616
 21
227.489728
 31
0.0
  0
LINE
  5
7E
330
1F
100
AcDbEntity
  8
2
  6
CONTINUOUS
 62
   150
100
AcDbLine
 10
194.658616
 20
99.735882
 30
0.0
 11
222.658616
 21
99.735882
 31
0.0
  0
LINE
  5
7F
330
1F
100
AcDbEntity
  8
2
  6
CONTINUOUS
 62
   150
100
AcDbLine
 10
150.658616
 20
105.135882
 30
0.0
 11
150.658616
 21
71.135882
 31
0.0
  0
LINE
  5
80
330
1F
100
AcDbEntity
  8
2
  6
CONTINUOUS
 62
   150
100
AcDbLine
 10
167.858616
 20
97.335882
 30
0.0
 11
165.058616
 21
97.335882
 31
0.0
  0
LINE
  5
81
330
1F
100
AcDbEntity
  8
2
  6
CONTINUOUS
 62
   150
100
AcDbLine
 10
167.458616
 20
92.754684
 30
0.0
 11
171.458616
 21
90.445283
 31
0.0
  0
LINE
  5
82
330
1F
100
AcDbEntity
  8
2
  6
CONTINUOUS
 62
   150
100
AcDbLine
 10
253.858616
 20
85.826481
 30
0.0
 11
253.858616
 21
90.445283
 31
0.0
  0
LINE
  5
83
330
1F
100
AcDbEntity
  8
2
  6
CENTER
 62
   150
100
AcDbLine
 10
167.458616
 20
226.364174
 30
0.0
 11
167.458616
 21
217.059346
 31
0.0
  0
LINE
  5
84
330
1F
100
AcDbEntity
  8
2
  6
CONTINUOUS
 62
   150
100
AcDbLine
 10
150.658616
 20
223.889728
 30
0.0
 11
150.658616
 21
219.489728
 31
0.0
  0
LINE
  5
85
330
1F
100
AcDbEntity
  8
2
  6
CONTINUOUS
 62
   150
100
AcDbLine
 10
163.458616
 20
85.826481
 30
0.0
 11
163.458616
 21
90.445283
 31
0.0
  0
LINE
  5
86
330
1F
100
AcDbEntity
  8
2
  6
CONTINUOUS
 62
   150
100
AcDbLine
 10
90.740925
 20
103.087502
 30
0.0
 11
90.740925
 21
72.313974
 31
0.0
  0
LINE
  5
87
330
1F
100
AcDbEntity
  8
2
  6
CENTER
 62
   150
100
AcDbLine
 10
257.312336
 20
88.135882
 30
0.0
 11
242.478802
 21
88.135882
 31
0.0
  0
LINE
  5
88
330
1F
100
AcDbEntity
  8
2
  6
CENTER
 62
   150
100
AcDbLine
 10
167.658616
 20
229.623807
 30
0.0
 11
167.658616
 21
220.810485
 31
0.0
  0
LINE
  5
89
330
1F
100
AcDbEntity
  8
2
  6
CONTINUOUS
 62
   150
100
AcDbLine
 10
149.058616
 20
105.335882
 30
0.0
 11
208.658616
 21
105.335882
 31
0.0
  0
LINE
  5
8A
330
1F
100
AcDbEntity
  8
2
  6
CONTINUOUS
 62
   150
100
AcDbLine
 10
323.458616
 20
72.313974
 30
0.0
 11
323.458616
 21
103.087502
 31
0.0
  0
LINE
  5
8B
330
1F
100
AcDbEntity
  8
2
  6
CENTER
 62
   150
100
AcDbLine
 10
138.658616
 20
74.513061
 30
0.0
 11
138.658616
 21
97.14508
 31
0.0
  0
LINE
  5
8C
330
1F
100
AcDbEntity
  8
2
  6
CENTER
 62
   150
100
AcDbLine
 10
138.658616
 20
208.235253
 30
0.0
 11
138.658616
 21
235.108182
 31
0.0
  0
LINE
  5
8D
330
1F
100
AcDbEntity
  8
2
  6
CENTER
 62
   150
100
AcDbLine
 10
167.458616
 20
96.388899
 30
0.0
 11
167.458616
 21
88.135882
 31
0.0
  0
LINE
  5
8E
330
1F
100
AcDbEntity
  8
2
  6
CONTINUOUS
 62
   150
100
AcDbLine
 10
194.658616
 20
74.935882
 30
0.0
 11
222.658616
 21
74.935882
 31
0.0
  0
LINE
  5
8F
330
1F
100
AcDbEntity
  8
2
  6
CONTINUOUS
 62
   150
100
AcDbLine
 10
149.058616
 20
69.335882
 30
0.0
 11
87.658616
 21
69.335882
 31
0.0
  0
LINE
  5
90
330
1F
100
AcDbEntity
  8
2
  6
CONTINUOUS
 62
   150
100
AcDbLine
 10
328.658616
 20
228.489728
 30
0.0
 11
332.658616
 21
228.489728
 31
0.0
  0
LINE
  5
91
330
1F
100
AcDbEntity
  8
2
  6
CONTINUOUS
 62
   150
100
AcDbLine
 10
267.258616
 20
104.335882
 30
0.0
 11
267.258616
 21
70.335882
 31
0.0
  0
LINE
  5
92
330
1F
100
AcDbEntity
  8
2
  6
CONTINUOUS
 62
   150
100
AcDbLine
 10
187.058616
 20
93.735882
 30
0.0
 11
187.058616
 21
82.535882
 31
0.0
  0
LINE
  5
93
330
1F
100
AcDbEntity
  8
2
  6
CONTINUOUS
 62
   150
100
AcDbLine
 10
150.658616
 20
71.135882
 30
0.0
 11
266.658616
 21
71.135882
 31
0.0
  0
LINE
  5
94
330
1F
100
AcDbEntity
  8
2
  6
CONTINUOUS
 62
   150
100
AcDbLine
 10
216.671827
 20
223.889728
 30
0.0
 11
208.658616
 21
223.889728
 31
0.0
  0
LINE
  5
95
330
1F
100
AcDbEntity
  8
2
  6
CENTER
 62
   150
100
AcDbLine
 10
268.358616
 20
88.135882
 30
0.0
 11
148.958616
 21
88.135882
 31
0.0
  0
LINE
  5
96
330
1F
100
AcDbEntity
  8
2
  6
CONTINUOUS
 62
   150
100
AcDbLine
 10
253.858616
 20
90.445283
 30
0.0
 11
249.858616
 21
92.754684
 31
0.0
  0
LINE
  5
97
330
1F
100
AcDbEntity
  8
2
  6
CONTINUOUS
 62
   150
100
AcDbLine
 10
194.658616
 20
76.535882
 30
0.0
 11
222.658616
 21
76.535882
 31
0.0
  0
LINE
  5
98
330
1F
100
AcDbEntity
  8
2
  6
CONTINUOUS
 62
   150
100
AcDbLine
 10
163.458616
 20
90.445283
 30
0.0
 11
167.458616
 21
92.754684
 31
0.0
  0
LINE
  5
99
330
1F
100
AcDbEntity
  8
2
  6
CONTINUOUS
 62
   150
100
AcDbLine
 10
249.458616
 20
97.335882
 30
0.0
 11
252.258616
 21
97.335882
 31
0.0
  0
LINE
  5
9A
330
1F
100
AcDbEntity
  8
2
  6
CONTINUOUS
 62
   150
100
AcDbLine
 10
323.690667
 20
228.623703
 30
0.0
 11
326.344257
 21
230.155754
 31
0.0
  0
LINE
  5
9B
330
1F
100
AcDbEntity
  8
2
  6
CONTINUOUS
 62
   150
100
AcDbLine
 10
245.858616
 20
85.826481
 30
0.0
 11
249.858616
 21
83.51708
 31
0.0
  0
LINE
  5
9C
330
1F
100
AcDbEntity
  8
2
  6
CONTINUOUS
 62
   150
100
AcDbLine
 10
268.258616
 20
69.335882
 30
0.0
 11
208.658616
 21
69.335882
 31
0.0
  0
LINE
  5
9D
330
1F
100
AcDbEntity
  8
2
  6
CONTINUOUS
 62
   150
100
AcDbLine
 10
161.458616
 20
87.789472
 30
0.0
 11
161.458616
 21
88.482292
 31
0.0
  0
LINE
  5
9E
330
1F
100
AcDbEntity
  8
2
  6
CENTER
 62
   150
100
AcDbLine
 10
110.658616
 20
205.868326
 30
0.0
 11
110.658616
 21
234.612348
 31
0.0
  0
LINE
  5
9F
330
1F
100
AcDbEntity
  8
2
  6
CONTINUOUS
 62
   150
100
AcDbLine
 10
84.658616
 20
228.489728
 30
0.0
 11
84.658616
 21
228.689728
 31
0.0
  0
LINE
  5
A0
330
1F
100
AcDbEntity
  8
2
  6
CONTINUOUS
 62
   150
100
AcDbLine
 10
266.658616
 20
71.135882
 30
0.0
 11
266.658616
 21
105.135882
 31
0.0
  0
LINE
  5
A1
330
1F
100
AcDbEntity
  8
2
  6
CONTINUOUS
 62
   150
100
AcDbLine
 10
329.658616
 20
69.335882
 30
0.0
 11
268.258616
 21
69.335882
 31
0.0
  0
LINE
  5
A2
330
1F
100
AcDbEntity
  8
2
  6
CONTINUOUS
 62
   150
100
AcDbLine
 10
150.058616
 20
219.489728
 30
0.0
 11
150.058616
 21
227.489728
 31
0.0
  0
LINE
  5
A3
330
1F
100
AcDbEntity
  8
2
  6
CENTER
 62
   150
100
AcDbLine
 10
81.505075
 20
87.335882
 30
0.0
 11
336.13237
 21
87.335882
 31
0.0
  0
LINE
  5
A4
330
1F
100
AcDbEntity
  8
2
  6
CONTINUOUS
 62
   150
100
AcDbLine
 10
188.658616
 20
93.735882
 30
0.0
 11
188.658616
 21
82.535882
 31
0.0
  0
LINE
  5
A5
330
1F
100
AcDbEntity
  8
2
  6
CONTINUOUS
 62
   150
100
AcDbLine
 10
266.658616
 20
71.135882
 30
0.0
 11
150.658616
 21
71.135882
 31
0.0
  0
LINE
  5
A6
330
1F
100
AcDbEntity
  8
2
  6
CONTINUOUS
 62
   150
100
AcDbLine
 10
167.858616
 20
78.935882
 30
0.0
 11
165.058616
 21
78.935882
 31
0.0
  0
LINE
  5
A7
330
1F
100
AcDbEntity
  8
2
  6
CONTINUOUS
 62
   150
100
AcDbLine
 10
249.458616
 20
78.935882
 30
0.0
 11
252.258616
 21
78.935882
 31
0.0
  0
LINE
  5
A8
330
1F
100
AcDbEntity
  8
2
  6
CENTER
 62
   150
100
AcDbLine
 10
249.658616
 20
229.623807
 30
0.0
 11
249.658616
 21
220.810485
 31
0.0
  0
LINE
  5
A9
330
1F
100
AcDbEntity
  8
2
  6
CENTER
 62
   150
100
AcDbLine
 10
233.258616
 20
217.420031
 30
0.0
 11
233.258616
 21
226.364174
 31
0.0
  0
LINE
  5
AA
330
1F
100
AcDbEntity
  8
2
  6
CENTER
 62
   150
100
AcDbLine
 10
208.658616
 20
226.364174
 30
0.0
 11
208.658616
 21
223.889728
 31
0.0
  0
LINE
  5
AB
330
1F
100
AcDbEntity
  8
2
  6
CENTER
 62
   150
100
AcDbLine
 10
240.646171
 20
88.135882
 30
0.0
 11
255.858616
 21
88.135882
 31
0.0
  0
LINE
  5
AC
330
1F
100
AcDbEntity
  8
2
  6
CONTINUOUS
 62
   150
100
AcDbLine
 10
158.058616
 20
87.789472
 30
0.0
 11
161.458616
 21
87.789472
 31
0.0
  0
LINE
  5
AD
330
1F
100
AcDbEntity
  8
2
  6
CONTINUOUS
 62
   150
100
AcDbLine
 10
90.472975
 20
230.289728
 30
0.0
 11
86.258616
 21
230.289728
 31
0.0
  0
LINE
  5
AE
330
1F
100
AcDbEntity
  8
2
  6
CONTINUOUS
 62
   150
100
AcDbLine
 10
323.190667
 20
228.489728
 30
0.0
 11
268.258616
 21
228.489728
 31
0.0
  0
LINE
  5
AF
330
1F
100
AcDbEntity
  8
2
  6
CENTER
 62
   150
100
AcDbLine
 10
252.858616
 20
229.623807
 30
0.0
 11
252.858616
 21
220.810485
 31
0.0
  0
LINE
  5
B0
330
1F
100
AcDbEntity
  8
2
  6
CONTINUOUS
 62
   150
100
AcDbLine
 10
222.658616
 20
99.735882
 30
0.0
 11
194.658616
 21
99.735882
 31
0.0
  0
LINE
  5
B1
330
1F
100
AcDbEntity
  8
2
  6
CONTINUOUS
 62
   150
100
AcDbLine
 10
268.258616
 20
105.335882
 30
0.0
 11
329.658616
 21
105.335882
 31
0.0
  0
LINE
  5
B2
330
1F
100
AcDbEntity
  8
2
  6
CONTINUOUS
 62
   150
100
AcDbLine
 10
166.557596
 20
105.135882
 30
0.0
 11
266.658616
 21
105.135882
 31
0.0
  0
LINE
  5
B3
330
1F
100
AcDbEntity
  8
2
  6
CONTINUOUS
 62
   150
100
AcDbLine
 10
150.058616
 20
104.335882
 30
0.0
 11
150.058616
 21
70.335882
 31
0.0
  0
LINE
  5
B4
330
1F
100
AcDbEntity
  8
2
  6
CONTINUOUS
 62
   150
100
AcDbLine
 10
104.658616
 20
212.489728
 30
0.0
 11
312.658616
 21
212.489728
 31
0.0
  0
LINE
  5
B5
330
1F
100
AcDbEntity
  8
2
  6
CONTINUOUS
 62
   150
100
AcDbLine
 10
228.658616
 20
82.535882
 30
0.0
 11
228.658616
 21
93.735882
 31
0.0
  0
LINE
  5
B6
330
1F
100
AcDbEntity
  8
2
  6
CONTINUOUS
 62
   150
100
AcDbLine
 10
332.658616
 20
102.335882
 30
0.0
 11
332.658616
 21
72.335882
 31
0.0
  0
LINE
  5
B7
330
1F
100
AcDbEntity
  8
2
  6
CONTINUOUS
 62
   150
100
AcDbLine
 10
150.658616
 20
105.135882
 30
0.0
 11
150.658616
 21
71.135882
 31
0.0
  0
LINE
  5
B8
330
1F
100
AcDbEntity
  8
2
  6
CENTER
 62
   150
100
AcDbLine
 10
184.058616
 20
217.420031
 30
0.0
 11
184.058616
 21
226.364174
 31
0.0
  0
LINE
  5
B9
330
1F
100
AcDbEntity
  8
2
  6
CONTINUOUS
 62
   150
100
AcDbLine
 10
266.658616
 20
223.889728
 30
0.0
 11
266.658616
 21
219.489728
 31
0.0
  0
LINE
  5
BA
330
1F
100
AcDbEntity
  8
2
  6
CONTINUOUS
 62
   150
100
AcDbLine
 10
255.858616
 20
87.789472
 30
0.0
 11
255.858616
 21
88.482292
 31
0.0
  0
LINE
  5
BB
330
1F
100
AcDbEntity
  8
2
  6
CENTER
 62
   150
100
AcDbLine
 10
158.058616
 20
88.135882
 30
0.0
 11
153.293841
 21
88.135882
 31
0.0
  0
LINE
  5
BC
330
1F
100
AcDbEntity
  8
2
  6
CONTINUOUS
 62
   150
100
AcDbLine
 10
161.458616
 20
88.135882
 30
0.0
 11
158.058616
 21
88.135882
 31
0.0
  0
LINE
  5
BD
330
1F
100
AcDbEntity
  8
2
  6
CENTER
 62
   150
100
AcDbLine
 10
176.671061
 20
88.135882
 30
0.0
 11
161.458616
 21
88.135882
 31
0.0
  0
LINE
  5
BE
330
1F
100
AcDbEntity
  8
2
  6
CONTINUOUS
 62
   150
100
AcDbLine
 10
326.844257
 20
230.289728
 30
0.0
 11
331.058616
 21
230.289728
 31
0.0
  0
LINE
  5
BF
330
1F
100
AcDbEntity
  8
2
  6
CONTINUOUS
 62
   150
100
AcDbLine
 10
249.858616
 20
83.51708
 30
0.0
 11
253.858616
 21
85.826481
 31
0.0
  0
LINE
  5
C0
330
1F
100
AcDbEntity
  8
2
  6
CENTER
 62
   150
100
AcDbLine
 10
110.658616
 20
77.2213
 30
0.0
 11
110.658616
 21
87.335882
 31
0.0
  0
LINE
  5
C1
330
1F
100
AcDbEntity
  8
2
  6
CONTINUOUS
 62
   150
100
AcDbLine
 10
326.576308
 20
72.313974
 30
0.0
 11
326.576308
 21
103.087502
 31
0.0
  0
LINE
  5
C2
330
1F
100
AcDbEntity
  8
2
  6
CONTINUOUS
 62
   150
100
AcDbLine
 10
255.858616
 20
88.482292
 30
0.0
 11
259.258616
 21
88.482292
 31
0.0
  0
LINE
  5
C3
330
1F
100
AcDbEntity
  8
2
  6
CENTER
 62
   150
100
AcDbLine
 10
160.004896
 20
88.135882
 30
0.0
 11
174.83843
 21
88.135882
 31
0.0
  0
LINE
  5
C4
330
1F
100
AcDbEntity
  8
2
  6
CENTER
 62
   150
100
AcDbLine
 10
306.658616
 20
232.812348
 30
0.0
 11
306.658616
 21
205.868326
 31
0.0
  0
LINE
  5
C5
330
1F
100
AcDbEntity
  8
2
  6
CONTINUOUS
 62
   150
100
AcDbLine
 10
150.658616
 20
228.289728
 30
0.0
 11
266.658616
 21
228.289728
 31
0.0
  0
LINE
  5
C6
330
1F
100
AcDbEntity
  8
2
  6
CENTER
 62
   150
100
AcDbLine
 10
208.658616
 20
67.177325
 30
0.0
 11
208.658616
 21
112.427414
 31
0.0
  0
LINE
  5
C7
330
1F
100
AcDbEntity
  8
2
  6
CONTINUOUS
 62
   150
100
AcDbLine
 10
230.258616
 20
82.535882
 30
0.0
 11
230.258616
 21
93.735882
 31
0.0
  0
LINE
  5
C8
330
1F
100
AcDbEntity
  8
2
  6
CENTER
 62
   150
100
AcDbLine
 10
167.458616
 20
209.892268
 30
0.0
 11
167.458616
 21
222.510768
 31
0.0
  0
LINE
  5
C9
330
1F
100
AcDbEntity
  8
2
  6
CENTER
 62
   150
100
AcDbLine
 10
148.958616
 20
88.135882
 30
0.0
 11
268.358616
 21
88.135882
 31
0.0
  0
LINE
  5
CA
330
1F
100
AcDbEntity
  8
2
  6
CONTINUOUS
 62
   150
100
AcDbLine
 10
266.658616
 20
71.135882
 30
0.0
 11
266.658616
 21
105.135882
 31
0.0
  0
LINE
  5
CB
330
1F
100
AcDbEntity
  8
2
  6
CONTINUOUS
 62
   150
100
AcDbLine
 10
150.658616
 20
105.135882
 30
0.0
 11
156.759637
 21
105.135882
 31
0.0
  0
LINE
  5
CC
330
1F
100
AcDbEntity
  8
2
  6
CONTINUOUS
 62
   150
100
AcDbLine
 10
259.258616
 20
88.482292
 30
0.0
 11
259.258616
 21
87.789472
 31
0.0
  0
LINE
  5
CD
330
1F
100
AcDbEntity
  8
2
  6
CONTINUOUS
 62
   150
100
AcDbLine
 10
255.858616
 20
88.135882
 30
0.0
 11
259.258616
 21
88.135882
 31
0.0
  0
LINE
  5
CE
330
1F
100
AcDbEntity
  8
2
  6
CENTER
 62
   150
100
AcDbLine
 10
208.658616
 20
223.889728
 30
0.0
 11
208.658616
 21
217.059346
 31
0.0
  0
LINE
  5
CF
330
1F
100
AcDbEntity
  8
2
  6
CENTER
 62
   150
100
AcDbLine
 10
110.658616
 20
97.450464
 30
0.0
 11
110.658616
 21
87.335882
 31
0.0
  0
LINE
  5
D0
330
1F
100
AcDbEntity
  8
2
  6
CONTINUOUS
 62
   150
100
AcDbLine
 10
171.458616
 20
85.826481
 30
0.0
 11
167.458616
 21
83.51708
 31
0.0
  0
LINE
  5
D1
330
1F
100
AcDbEntity
  8
2
  6
CENTER
 62
   150
100
AcDbLine
 10
306.658616
 20
87.335882
 30
0.0
 11
306.658616
 21
77.2213
 31
0.0
  0
LINE
  5
D2
330
1F
100
AcDbEntity
  8
2
  6
CONTINUOUS
 62
   150
100
AcDbLine
 10
228.658616
 20
82.535882
 30
0.0
 11
228.658616
 21
93.735882
 31
0.0
  0
LINE
  5
D3
330
1F
100
AcDbEntity
  8
2
  6
CENTER
 62
   150
100
AcDbLine
 10
249.858616
 20
96.388899
 30
0.0
 11
249.858616
 21
88.135882
 31
0.0
  0
LINE
  5
D4
330
1F
100
AcDbEntity
  8
2
  6
CENTER
 62
   150
100
AcDbLine
 10
249.858616
 20
81.451236
 30
0.0
 11
249.858616
 21
95.329555
 31
0.0
  0
LINE
  5
D5
330
1F
100
AcDbEntity
  8
2
  6
CONTINUOUS
 62
   150
100
AcDbLine
 10
161.458616
 20
88.482292
 30
0.0
 11
158.058616
 21
88.482292
 31
0.0
  0
LINE
  5
D6
330
1F
100
AcDbEntity
  8
2
  6
CONTINUOUS
 62
   150
100
AcDbLine
 10
90.972975
 20
230.155754
 30
0.0
 11
93.626565
 21
228.623703
 31
0.0
  0
LINE
  5
D7
330
1F
100
AcDbEntity
  8
2
  6
CONTINUOUS
 62
   150
100
AcDbLine
 10
194.658616
 20
101.335882
 30
0.0
 11
222.658616
 21
101.335882
 31
0.0
  0
LINE
  5
D8
330
1F
100
AcDbEntity
  8
2
  6
CONTINUOUS
 62
   150
100
AcDbLine
 10
266.658616
 20
223.889728
 30
0.0
 11
150.658616
 21
223.889728
 31
0.0
  0
LINE
  5
D9
330
1F
100
AcDbEntity
  8
2
  6
CENTER
 62
   150
100
AcDbLine
 10
167.458616
 20
80.808926
 30
0.0
 11
167.458616
 21
88.135882
 31
0.0
  0
LINE
  5
DA
330
1F
100
AcDbEntity
  8
2
  6
CONTINUOUS
 62
   150
100
AcDbLine
 10
88.658616
 20
228.489728
 30
0.0
 11
84.658616
 21
228.489728
 31
0.0
  0
LINE
  5
DB
330
1F
100
AcDbEntity
  8
2
  6
CONTINUOUS
 62
   150
100
AcDbLine
 10
150.658616
 20
228.289728
 30
0.0
 11
150.658616
 21
223.889728
 31
0.0
  0
LINE
  5
DC
330
1F
100
AcDbEntity
  8
2
  6
CONTINUOUS
 62
   150
100
AcDbLine
 10
332.658616
 20
228.689728
 30
0.0
 11
332.658616
 21
228.489728
 31
0.0
  0
LINE
  5
DD
330
1F
100
AcDbEntity
  8
2
  6
CONTINUOUS
 62
   150
100
AcDbLine
 10
194.658616
 20
76.535882
 30
0.0
 11
222.658616
 21
76.535882
 31
0.0
  0
LINE
  5
DE
330
1F
100
AcDbEntity
  8
2
  6
CONTINUOUS
 62
   150
100
AcDbLine
 10
156.759637
 20
105.135882
 30
0.0
 11
150.658616
 21
105.135882
 31
0.0
  0
LINE
  5
DF
330
1F
100
AcDbEntity
  8
2
  6
CONTINUOUS
 62
   150
100
AcDbLine
 10
150.658616
 20
223.889728
 30
0.0
 11
208.658616
 21
223.889728
 31
0.0
  0
LINE
  5
E0
330
1F
100
AcDbEntity
  8
2
  6
CONTINUOUS
 62
   150
100
AcDbLine
 10
259.258616
 20
87.789472
 30
0.0
 11
255.858616
 21
87.789472
 31
0.0
  0
LINE
  5
E1
330
1F
100
AcDbEntity
  8
2
  6
CONTINUOUS
 62
   150
100
AcDbLine
 10
188.658616
 20
93.735882
 30
0.0
 11
188.658616
 21
82.535882
 31
0.0
  0
LINE
  5
E2
330
1F
100
AcDbEntity
  8
2
  6
CENTER
 62
   150
100
AcDbLine
 10
208.658616
 20
69.99512
 30
0.0
 11
208.658616
 21
106.218826
 31
0.0
  0
LINE
  5
E3
330
1F
100
AcDbEntity
  8
2
  6
CENTER
 62
   150
100
AcDbLine
 10
167.458616
 20
81.451236
 30
0.0
 11
167.458616
 21
95.329555
 31
0.0
  0
LINE
  5
E4
330
1F
100
AcDbEntity
  8
2
  6
CENTER
 62
   150
100
AcDbLine
 10
306.658616
 20
87.335882
 30
0.0
 11
306.658616
 21
97.450464
 31
0.0
  0
LINE
  5
E5
330
1F
100
AcDbEntity
  8
2
  6
CONTINUOUS
 62
   150
100
AcDbLine
 10
158.058616
 20
88.482292
 30
0.0
 11
158.058616
 21
87.789472
 31
0.0
  0
LINE
  5
E6
330
1F
100
AcDbEntity
  8
2
  6
CONTINUOUS
 62
   150
100
AcDbLine
 10
93.858616
 20
103.087502
 30
0.0
 11
93.858616
 21
72.313974
 31
0.0
  0
LINE
  5
E7
330
1F
100
AcDbEntity
  8
2
  6
CENTER
 62
   150
100
AcDbLine
 10
278.658616
 20
97.14508
 30
0.0
 11
278.658616
 21
74.513061
 31
0.0
  0
LINE
  5
E8
330
1F
100
AcDbEntity
  8
2
  6
CONTINUOUS
 62
   150
100
AcDbLine
 10
332.658616
 20
228.489728
 30
0.0
 11
328.658616
 21
228.489728
 31
0.0
  0
LINE
  5
E9
330
1F
100
AcDbEntity
  8
2
  6
CONTINUOUS
 62
   150
100
AcDbLine
 10
84.658616
 20
72.335882
 30
0.0
 11
84.658616
 21
102.335882
 31
0.0
  0
LINE
  5
EA
330
1F
100
AcDbEntity
  8
2
  6
CENTER
 62
   150
100
AcDbLine
 10
164.458616
 20
229.623807
 30
0.0
 11
164.458616
 21
220.810485
 31
0.0
  0
LINE
  5
EB
330
1F
100
AcDbEntity
  8
2
  6
CONTINUOUS
 62
   150
100
AcDbLine
 10
149.058616
 20
228.489728
 30
0.0
 11
94.126565
 21
228.489728
 31
0.0
  0
LINE
  5
EC
330
1F
100
AcDbEntity
  8
2
  6
CONTINUOUS
 62
   150
100
AcDbLine
 10
266.658616
 20
228.289728
 30
0.0
 11
266.658616
 21
223.889728
 31
0.0
  0
LINE
  5
ED
330
1F
100
AcDbEntity
  8
2
  6
CONTINUOUS
 62
   150
100
AcDbLine
 10
149.058616
 20
105.335882
 30
0.0
 11
87.658616
 21
105.335882
 31
0.0
  0
LINE
  5
EE
330
1F
100
AcDbEntity
  8
2
  6
CENTER
 62
   150
100
AcDbLine
 10
208.658616
 20
111.635882
 30
0.0
 11
208.658616
 21
67.635882
 31
0.0
  0
LINE
  5
EF
330
1F
100
AcDbEntity
  8
2
  6
CONTINUOUS
 62
   150
100
AcDbLine
 10
266.658616
 20
105.135882
 30
0.0
 11
166.557596
 21
105.135882
 31
0.0
  0
LINE
  5
F0
330
1F
100
AcDbEntity
  8
2
  6
CONTINUOUS
 62
   150
100
AcDbLine
 10
215.784819
 20
219.489728
 30
0.0
 11
150.658616
 21
219.489728
 31
0.0
  0
ARC
  5
F1
330
1F
100
AcDbEntity
  8
2
  6
CONTINUOUS
 62
   150
100
AcDbCircle
 10
331.058616
 20
228.689728
 30
0.0
 40
1.599999999999454
100
AcDbArc
 50
0.0
 51
90.0
  0
ARC
  5
F2
330
1F
100
AcDbEntity
  8
2
  6
CONTINUOUS
 62
   150
100
AcDbCircle
 10
268.258616
 20
104.335882
 30
0.0
 40
1.0
100
AcDbArc
 50
90.0
 51
180.0
  0
ARC
  5
F3
330
1F
100
AcDbEntity
  8
2
  6
CONTINUOUS
 62
   150
100
AcDbCircle
 10
194.658616
 20
82.535882
 30
0.0
 40
7.599999999999454
100
AcDbArc
 50
180.0
 51
270.0
  0
ARC
  5
F4
330
1F
100
AcDbEntity
  8
2
  6
CONTINUOUS
 62
   150
100
AcDbCircle
 10
165.058616
 20
88.135882
 30
0.0
 40
9.199999999999818
100
AcDbArc
 50
90.0
 51
270.0
  0
ARC
  5
F5
330
1F
100
AcDbEntity
  8
2
  6
CONTINUOUS
 62
   150
100
AcDbCircle
 10
167.458616
 20
90.535882
 30
0.0
 40
6.699999999999818
100
AcDbArc
 50
0.0
 51
101.185976
  0
ARC
  5
F6
330
1F
100
AcDbEntity
  8
2
  6
CONTINUOUS
 62
   150
100
AcDbCircle
 10
249.458616
 20
88.135882
 30
0.0
 40
9.199999999999818
100
AcDbArc
 50
90.0
 51
180.0
  0
ARC
  5
F7
330
1F
100
AcDbEntity
  8
2
  6
CONTINUOUS
 62
   150
100
AcDbCircle
 10
149.058616
 20
104.335882
 30
0.0
 40
1.0
100
AcDbArc
 50
0.0
 51
90.0
  0
ARC
  5
F8
330
1F
100
AcDbEntity
  8
2
  6
CONTINUOUS
 62
   150
100
AcDbCircle
 10
278.658616
 20
86.305322
 30
0.0
 40
8.299999999999727
100
AcDbArc
 50
0.0
 51
180.0
  0
ARC
  5
F9
330
1F
100
AcDbEntity
  8
2
  6
CONTINUOUS
 62
   150
100
AcDbCircle
 10
312.658616
 20
228.489728
 30
0.0
 40
16.0
100
AcDbArc
 50
270.0
 51
0.0
  0
ARC
  5
FA
330
1F
100
AcDbEntity
  8
2
  6
CONTINUOUS
 62
   150
100
AcDbCircle
 10
194.658616
 20
93.735882
 30
0.0
 40
6.0
100
AcDbArc
 50
90.0
 51
180.0
  0
ARC
  5
FB
330
1F
100
AcDbEntity
  8
2
  6
CONTINUOUS
 62
   150
100
AcDbCircle
 10
194.658616
 20
93.735882
 30
0.0
 40
6.0
100
AcDbArc
 50
90.0
 51
180.0
  0
CIRCLE
  5
FC
330
1F
100
AcDbEntity
  8
2
  6
CONTINUOUS
 62
   150
100
AcDbCircle
 10
251.858616
 20
88.135882
 30
0.0
 40
9.0
  0
ARC
  5
FD
330
1F
100
AcDbEntity
  8
2
  6
CONTINUOUS
 62
   150
100
AcDbCircle
 10
268.258616
 20
70.335882
 30
0.0
 40
1.0
100
AcDbArc
 50
180.0
 51
270.0
  0
ARC
  5
FE
330
1F
100
AcDbEntity
  8
2
  6
CONTINUOUS
 62
   150
100
AcDbCircle
 10
94.126565
 20
229.489728
 30
0.0
 40
1.000000000000131
100
AcDbArc
 50
240.0
 51
270.0
  0
ARC
  5
FF
330
1F
100
AcDbEntity
  8
2
  6
CONTINUOUS
 62
   150
100
AcDbCircle
 10
194.658616
 20
93.735882
 30
0.0
 40
7.600000000000193
100
AcDbArc
 50
90.0
 51
180.0
  0
ARC
  5
100
330
1F
100
AcDbEntity
  8
2
  6
CONTINUOUS
 62
   150
100
AcDbCircle
 10
161.658616
 20
110.135882
 30
0.0
 40
7.0
100
AcDbArc
 50
270.0
 51
314.415309
  0
ARC
  5
101
330
1F
100
AcDbEntity
  8
2
  6
CONTINUOUS
 62
   150
100
AcDbCircle
 10
194.658616
 20
82.535882
 30
0.0
 40
6.0
100
AcDbArc
 50
180.0
 51
270.0
  0
ARC
  5
102
330
1F
100
AcDbEntity
  8
2
  6
CONTINUOUS
 62
   150
100
AcDbCircle
 10
252.258616
 20
88.135882
 30
0.0
 40
9.199999999999818
100
AcDbArc
 50
270.0
 51
90.0
  0
ARC
  5
103
330
1F
100
AcDbEntity
  8
2
  6
CONTINUOUS
 62
   150
100
AcDbCircle
 10
149.058616
 20
227.489728
 30
0.0
 40
1.0
100
AcDbArc
 50
0.0
 51
90.0
  0
ARC
  5
104
330
1F
100
AcDbEntity
  8
2
  6
CONTINUOUS
 62
   150
100
AcDbCircle
 10
104.658616
 20
228.489728
 30
0.0
 40
16.0
100
AcDbArc
 50
180.0
 51
270.0
  0
ARC
  5
105
330
1F
100
AcDbEntity
  8
2
  6
CONTINUOUS
 62
   150
100
AcDbCircle
 10
222.658616
 20
82.535882
 30
0.0
 40
6.0
100
AcDbArc
 50
270.0
 51
0.0
  0
ARC
  5
106
330
1F
100
AcDbEntity
  8
2
  6
CONTINUOUS
 62
   150
100
AcDbCircle
 10
329.658616
 20
72.335882
 30
0.0
 40
3.0
100
AcDbArc
 50
270.0
 51
0.0
  0
ARC
  5
107
330
1F
100
AcDbEntity
  8
2
  6
CONTINUOUS
 62
   150
100
AcDbCircle
 10
161.658616
 20
110.135882
 30
0.0
 40
7.0
100
AcDbArc
 50
270.0
 51
314.415309
  0
CIRCLE
  5
108
330
1F
100
AcDbEntity
  8
2
  6
CONTINUOUS
 62
   150
100
AcDbCircle
 10
167.458616
 20
88.135882
 30
0.0
 40
4.0
  0
CIRCLE
  5
109
330
1F
100
AcDbEntity
  8
2
  6
CONTINUOUS
 62
   150
100
AcDbCircle
 10
306.658616
 20
87.335882
 30
0.0
 40
8.29999999999972
  0
ARC
  5
10A
330
1F
100
AcDbEntity
  8
2
  6
CONTINUOUS
 62
   150
100
AcDbCircle
 10
149.058616
 20
70.335882
 30
0.0
 40
1.0
100
AcDbArc
 50
270.0
 51
0.0
  0
ARC
  5
10B
330
1F
100
AcDbEntity
  8
2
  6
CONTINUOUS
 62
   150
100
AcDbCircle
 10
167.858616
 20
88.135882
 30
0.0
 40
9.199999999999818
100
AcDbArc
 50
270.0
 51
0.0
  0
ARC
  5
10C
330
1F
100
AcDbEntity
  8
2
  6
CONTINUOUS
 62
   150
100
AcDbCircle
 10
86.258616
 20
228.689728
 30
0.0
 40
1.599999999999994
100
AcDbArc
 50
90.0
 51
180.0
  0
ARC
  5
10D
330
1F
100
AcDbEntity
  8
2
  6
CONTINUOUS
 62
   150
100
AcDbCircle
 10
90.472975
 20
229.289728
 30
0.0
 40
0.9999999999999589
100
AcDbArc
 50
60.0
 51
90.0
  0
ARC
  5
10E
330
1F
100
AcDbEntity
  8
2
  6
CONTINUOUS
 62
   150
100
AcDbCircle
 10
222.658616
 20
93.735882
 30
0.0
 40
7.599999999999454
100
AcDbArc
 50
0.0
 51
90.0
  0
ARC
  5
10F
330
1F
100
AcDbEntity
  8
2
  6
CONTINUOUS
 62
   150
100
AcDbCircle
 10
161.658616
 20
110.135882
 30
0.0
 40
6.999999999999813
100
AcDbArc
 50
225.584691
 51
270.0
  0
ARC
  5
110
330
1F
100
AcDbEntity
  8
2
  6
CONTINUOUS
 62
   150
100
AcDbCircle
 10
222.658616
 20
82.535882
 30
0.0
 40
6.0
100
AcDbArc
 50
270.0
 51
0.0
  0
ARC
  5
111
330
1F
100
AcDbEntity
  8
2
  6
CONTINUOUS
 62
   150
100
AcDbCircle
 10
249.858616
 20
90.535882
 30
0.0
 40
6.699999999999799
100
AcDbArc
 50
78.814024
 51
180.0
  0
ARC
  5
112
330
1F
100
AcDbEntity
  8
2
  6
CONTINUOUS
 62
   150
100
AcDbCircle
 10
138.658616
 20
86.305322
 30
0.0
 40
8.299999999999727
100
AcDbArc
 50
0.0
 51
180.0
  0
ARC
  5
113
330
1F
100
AcDbEntity
  8
2
  6
CONTINUOUS
 62
   150
100
AcDbCircle
 10
87.658616
 20
102.335882
 30
0.0
 40
3.0
100
AcDbArc
 50
90.0
 51
180.0
  0
CIRCLE
  5
114
330
1F
100
AcDbEntity
  8
2
  6
CONTINUOUS
 62
   150
100
AcDbCircle
 10
306.658616
 20
87.335882
 30
0.0
 40
4.29999999999972
  0
ARC
  5
115
330
1F
100
AcDbEntity
  8
2
  6
CONTINUOUS
 62
   150
100
AcDbCircle
 10
329.658616
 20
102.335882
 30
0.0
 40
3.0
100
AcDbArc
 50
0.0
 51
90.0
  0
ARC
  5
116
330
1F
100
AcDbEntity
  8
2
  6
CONTINUOUS
 62
   150
100
AcDbCircle
 10
326.844257
 20
229.289728
 30
0.0
 40
1.0
100
AcDbArc
 50
90.0
 51
120.0
  0
ARC
  5
117
330
1F
100
AcDbEntity
  8
2
  6
CONTINUOUS
 62
   150
100
AcDbCircle
 10
222.658616
 20
93.735882
 30
0.0
 40
6.0
100
AcDbArc
 50
0.0
 51
90.0
  0
ARC
  5
118
330
1F
100
AcDbEntity
  8
2
  6
CONTINUOUS
 62
   150
100
AcDbCircle
 10
167.858616
 20
88.135882
 30
0.0
 40
9.199999999999818
100
AcDbArc
 50
0.0
 51
90.0
  0
ARC
  5
119
330
1F
100
AcDbEntity
  8
2
  6
CONTINUOUS
 62
   150
100
AcDbCircle
 10
161.658616
 20
110.135882
 30
0.0
 40
6.999999999999813
100
AcDbArc
 50
225.584691
 51
270.0
  0
ARC
  5
11A
330
1F
100
AcDbEntity
  8
2
  6
CONTINUOUS
 62
   150
100
AcDbCircle
 10
249.458616
 20
88.135882
 30
0.0
 40
9.199999999999818
100
AcDbArc
 50
180.0
 51
270.0
  0
ARC
  5
11B
330
1F
100
AcDbEntity
  8
2
  6
CONTINUOUS
 62
   150
100
AcDbCircle
 10
323.190667
 20
229.489728
 30
0.0
 40
1.0
100
AcDbArc
 50
270.0
 51
300.0
  0
ARC
  5
11C
330
1F
100
AcDbEntity
  8
2
  6
CONTINUOUS
 62
   150
100
AcDbCircle
 10
268.258616
 20
227.489728
 30
0.0
 40
1.0
100
AcDbArc
 50
90.0
 51
180.0
  0
ARC
  5
11D
330
1F
100
AcDbEntity
  8
2
  6
CONTINUOUS
 62
   150
100
AcDbCircle
 10
87.658616
 20
72.335882
 30
0.0
 40
3.0
100
AcDbArc
 50
180.0
 51
270.0
  0
ARC
  5
11E
330
1F
100
AcDbEntity
  8
2
  6
CONTINUOUS
 62
   150
100
AcDbCircle
 10
222.658616
 20
82.535882
 30
0.0
 40
7.60000000000025
100
AcDbArc
 50
270.0
 51
0.0
  0
ARC
  5
11F
330
1F
100
AcDbEntity
  8
2
  6
CONTINUOUS
 62
   150
100
AcDbCircle
 10
194.658616
 20
82.535882
 30
0.0
 40
6.0
100
AcDbArc
 50
180.0
 51
270.0
  0
ARC
  5
120
330
1F
100
AcDbEntity
  8
2
  6
CONTINUOUS
 62
   150
100
AcDbCircle
 10
222.658616
 20
93.735882
 30
0.0
 40
6.0
100
AcDbArc
 50
0.0
 51
90.0
  0
CIRCLE
  5
121
330
1F
100
AcDbEntity
  8
2
  6
CONTINUOUS
 62
   150
100
AcDbCircle
 10
165.458616
 20
88.135882
 30
0.0
 40
9.0
  0
CIRCLE
  5
122
330
1F
100
AcDbEntity
  8
2
  6
CONTINUOUS
 62
   150
100
AcDbCircle
 10
110.658616
 20
87.335882
 30
0.0
 40
8.29999999999972
  0
CIRCLE
  5
123
330
1F
100
AcDbEntity
  8
2
  6
CONTINUOUS
 62
   150
100
AcDbCircle
 10
110.658616
 20
87.335882
 30
0.0
 40
4.29999999999972
  0
CIRCLE
  5
124
330
1F
100
AcDbEntity
  8
2
  6
CONTINUOUS
 62
   150
100
AcDbCircle
 10
249.858616
 20
88.135882
 30
0.0
 40
4.0
  0
SPLINE
  5
125
330
1F
100
AcDbEntity
  8
2
  6
CONTINUOUS
 62
   150
100
AcDbSpline
210
0.0
220
0.0
230
1.0
 70
     8
 71
     3
 72
    25
 73
    21
 74
     0
 42
0.000000001
 43
0.0000000001
 40
0.0
 40
0.0
 40
0.0
 40
0.0
 40
0.0539997297886455
 40
0.107992845880666
 40
0.1628797455505481
 40
0.2177552216116295
 40
0.2739727405468284
 40
0.3301766712083641
 40
0.3879847366420054
 40
0.445779439125002
 40
0.505234188767931
 40
0.5646773908508915
 40
0.625639762260271
 40
0.6865932152457045
 40
0.7487579184003599
 40
0.810916637885024
 40
0.8738534955507343
 40
0.9367873659533551
 40
0.9684151882657714
 40
1.0
 40
1.0
 40
1.0
 40
1.0
 10
277.9341863680791
 20
76.5408007868169
 30
0.0
 10
277.6913212468476
 20
76.56600469694197
 30
0.0
 10
277.211046005086
 20
76.640569322441
 30
0.0
 10
276.4999408579788
 20
76.82787085707028
 30
0.0
 10
275.8078771789419
 20
77.08606069324091
 30
0.0
 10
275.1358689654467
 20
77.41633735853364
 30
0.0
 10
274.4934329421044
 20
77.81228234250361
 30
0.0
 10
273.8807821555222
 20
78.27506765929459
 30
0.0
 10
273.3072966028878
 20
78.79617155601781
 30
0.0
 10
272.7725422382803
 20
79.37691313830791
 30
0.0
 10
272.2849344160456
 20
80.00708760751857
 30
0.0
 10
271.8440700791627
 20
80.6877864709783
 30
0.0
 10
271.4566604453787
 20
81.407927979518
 30
0.0
 10
271.1227348348707
 20
82.16772629501216
 30
0.0
 10
270.8469365894705
 20
82.95620332257735
 30
0.0
 10
270.6297366683359
 20
83.77200660058466
 30
0.0
 10
270.4737564596328
 20
84.60519954751763
 30
0.0
 10
270.3952777174488
 20
85.31090703952484
 30
0.0
 10
270.363881743576
 20
85.87835507134352
 30
0.0
 10
270.3586232038538
 20
86.16299121590643
 30
0.0
 10
270.3586160649511
 20
86.30532182784108
 30
0.0
  0
SPLINE
  5
126
330
1F
100
AcDbEntity
  8
2
  6
CONTINUOUS
 62
   150
100
AcDbSpline
210
0.0
220
0.0
230
1.0
 70
     8
 71
     3
 72
    27
 73
    23
 74
     0
 42
0.000000001
 43
0.0000000001
 40
0.0
 40
0.0
 40
0.0
 40
0.0
 40
0.0285223206070377
 40
0.0570834814487733
 40
0.1139152284229386
 40
0.1707496730125352
 40
0.2268814283835293
 40
0.2830185872426459
 40
0.338061939814264
 40
0.3931133460715945
 40
0.4467928829966335
 40
0.5004828478200718
 40
0.5526737251163537
 40
0.6048766696797432
 40
0.6556310177895642
 40
0.7063976366419664
 40
0.7559523382778386
 40
0.8055173558793108
 40
0.8542752519447145
 40
0.903039120436975
 40
0.9515195602184868
 40
1.0
 40
1.0
 40
1.0
 40
1.0
 10
130.3586160649504
 20
86.3053218278217
 30
0.0
 10
130.358623203859
 20
86.16299121589103
 30
0.0
 10
130.3638817435733
 20
85.87835507133357
 30
0.0
 10
130.3952777174507
 20
85.31090703952177
 30
0.0
 10
130.4737564596257
 20
84.60519954751825
 30
0.0
 10
130.6297366683521
 20
83.77200660058114
 30
0.0
 10
130.8469365894091
 20
82.95620332259014
 30
0.0
 10
131.122734835094
 20
82.1677262949635
 30
0.0
 10
131.4566604445658
 20
81.40792797969632
 30
0.0
 10
131.8440700821595
 20
80.68778647031766
 30
0.0
 10
132.2849344051606
 20
80.0070876099148
 30
0.0
 10
132.7725422784654
 20
79.37691312946251
 30
0.0
 10
133.3072964575406
 20
78.79617158800826
 30
0.0
 10
133.8807826922516
 20
78.27506754116396
 30
0.0
 10
134.4934310004644
 20
77.81228276984265
 30
0.0
 10
135.1358761473432
 20
77.41633577785828
 30
0.0
 10
135.8078510832238
 20
77.08606643668608
 30
0.0
 10
136.5000376791309
 20
76.82784954756025
 30
0.0
 10
137.2106911715141
 20
76.64064741828244
 30
0.0
 10
137.9313996567516
 20
76.52864586740176
 30
0.0
 10
138.6590079343248
 20
76.49058867909244
 30
0.0
 10
139.1415691961952
 20
76.51573794466535
 30
0.0
 10
139.3830457618224
 20
76.5408007868169
 30
0.0
  0
SPLINE
  5
127
330
1F
100
AcDbEntity
  8
2
  6
CONTINUOUS
 62
   150
100
AcDbSpline
210
0.0
220
0.0
230
1.0
 70
     8
 71
     3
 72
    45
 73
    41
 74
     0
 42
0.000000001
 43
0.0000000001
 40
0.0
 40
0.0
 40
0.0
 40
0.0
 40
0.0129895122403477
 40
0.0260113230663592
 40
0.0521276758089092
 40
0.0782418080585286
 40
0.1046788792819152
 40
0.1311120332066844
 40
0.1580325146340151
 40
0.1849481926553941
 40
0.2124499903954003
 40
0.2399469003206365
 40
0.2680542599673623
 40
0.2961572548265729
 40
0.3248221595497356
 40
0.3534835977613651
 40
0.3825951661979909
 40
0.4117043596698964
 40
0.4411036747167656
 40
0.4705017887690029
 40
0.4999999999948848
 40
0.5294982112208219
 40
0.5588963252730407
 40
0.5882956403199203
 40
0.61740483379182
 40
0.6465164022284435
 40
0.6751778404400783
 40
0.7038427451632364
 40
0.7319457400224688
 40
0.7600530996691816
 40
0.7875500095944179
 40
0.8150518073344153
 40
0.8419674853557925
 40
0.868887966783144
 40
0.8953211207079133
 40
0.9217581919312774
 40
0.9478723241809057
 40
0.9739886769234686
 40
0.987010487754574
 40
1.0
 40
1.0
 40
1.0
 40
1.0
 10
146.9586160649499
 20
86.30532182760365
 30
0.0
 10
146.9586029336526
 20
86.19905385474127
 30
0.0
 10
146.9533151661644
 20
85.98654920152629
 30
0.0
 10
146.9214080781558
 20
85.56147925806701
 30
0.0
 10
146.8424340781255
 20
85.03308155205511
 30
0.0
 10
146.6842578661613
 20
84.40881025250874
 30
0.0
 10
146.4658134943088
 20
83.80022896878913
 30
0.0
 10
146.1866351943593
 20
83.20975534004984
 30
0.0
 10
145.8515087021674
 20
82.64460068662984
 30
0.0
 10
145.46011615054
 20
82.1060731847925
 30
0.0
 10
145.0188446251827
 20
81.60133768002956
 30
0.0
 10
144.5274597441066
 20
81.13111777616038
 30
0.0
 10
143.9936369938937
 20
80.7018240020399
 30
0.0
 10
143.4174455309023
 20
80.31404776336981
 30
0.0
 10
142.8072878976213
 20
79.97290954238426
 30
0.0
 10
142.1639371324206
 20
79.67912658473804
 30
0.0
 10
141.4958326748701
 20
79.43625246200364
 30
0.0
 10
140.8048913604623
 20
79.24513530998442
 30
0.0
 10
140.0989067121943
 20
79.10776402323691
 30
0.0
 10
139.3812842698251
 20
79.02488960453931
 30
0.0
 10
138.6586160649506
 20
78.99717599055245
 30
0.0
 10
137.9359478600745
 20
79.02488960453891
 30
0.0
 10
137.2183254177073
 20
79.10776402323674
 30
0.0
 10
136.5123407694375
 20
79.24513530998425
 30
0.0
 10
135.8213994550306
 20
79.43625246200403
 30
0.0
 10
135.1532949974805
 20
79.67912658473804
 30
0.0
 10
134.5099442322783
 20
79.9729095423838
 30
0.0
 10
133.8997865989988
 20
80.31404776337021
 30
0.0
 10
133.323595136007
 20
80.70182400203939
 30
0.0
 10
132.7897723857939
 20
81.13111777616044
 30
0.0
 10
132.2983875047171
 20
81.60133768002973
 30
0.0
 10
131.8571159793612
 20
82.10607318479205
 30
0.0
 10
131.4657234277333
 20
82.64460068663001
 30
0.0
 10
131.1305969355408
 20
83.2097553400491
 30
0.0
 10
130.851418635591
 20
83.80022896878856
 30
0.0
 10
130.6329742637388
 20
84.4088102525084
 30
0.0
 10
130.4747980517734
 20
85.03308155205494
 30
0.0
 10
130.3958240517384
 20
85.56147925810737
 30
0.0
 10
130.3639169637252
 20
85.9865492016514
 30
0.0
 10
130.3586291962488
 20
86.19905385494766
 30
0.0
 10
130.3586160649504
 20
86.30532182785302
 30
0.0
  0
SPLINE
  5
128
330
1F
100
AcDbEntity
  8
2
  6
CONTINUOUS
 62
   150
100
AcDbSpline
210
0.0
220
0.0
230
1.0
 70
     8
 71
     3
 72
    25
 73
    21
 74
     0
 42
0.000000001
 43
0.0000000001
 40
0.0
 40
0.0
 40
0.0
 40
0.0
 40
0.0539997297886634
 40
0.1079928458806364
 40
0.1628797455505355
 40
0.2177552216116484
 40
0.2739727405468056
 40
0.3301766712083428
 40
0.3879847366419854
 40
0.4457794391249834
 40
0.5052341887679344
 40
0.5646773908509145
 40
0.6256397622602714
 40
0.6865932152456862
 40
0.7487579184003541
 40
0.8109166378850153
 40
0.8738534955507301
 40
0.9367873659533524
 40
0.9684151882657714
 40
1.0
 40
1.0
 40
1.0
 40
1.0
 10
139.3830457618221
 20
76.54080078681685
 30
0.0
 10
139.6259108830534
 20
76.56600469694192
 30
0.0
 10
140.1061861248149
 20
76.64056932244071
 30
0.0
 10
140.8172912719226
 20
76.8278708570704
 30
0.0
 10
141.5093549509588
 20
77.08606069324102
 30
0.0
 10
142.181363164455
 20
77.41633735853341
 30
0.0
 10
142.8237991877957
 20
77.81228234250378
 30
0.0
 10
143.436449974379
 20
78.27506765929454
 30
0.0
 10
144.0099355270129
 20
78.79617155601787
 30
0.0
 10
144.5446898916211
 20
79.37691313830797
 30
0.0
 10
145.0322977138562
 20
80.00708760751868
 30
0.0
 10
145.4731620507384
 20
80.68778647097801
 30
0.0
 10
145.8605716845223
 20
81.40792797951778
 30
0.0
 10
146.1944972950298
 20
82.16772629501244
 30
0.0
 10
146.4702955404298
 20
82.9562033225773
 30
0.0
 10
146.6874954615639
 20
83.7720066005846
 30
0.0
 10
146.8434756702691
 20
84.60519954751746
 30
0.0
 10
146.9219544124517
 20
85.31090703952535
 30
0.0
 10
146.9533503863265
 20
85.87835507134272
 30
0.0
 10
146.9586089260454
 20
86.16299121590808
 30
0.0
 10
146.9586160649499
 20
86.30532182784108
 30
0.0
  0
SPLINE
  5
129
330
1F
100
AcDbEntity
  8
2
  6
CONTINUOUS
 62
   150
100
AcDbSpline
210
0.0
220
0.0
230
1.0
 70
    11
 71
     3
 72
    79
 73
    75
 74
     0
 42
0.000000001
 43
0.0000000001
 40
0.0
 40
0.0
 40
0.0
 40
0.0
 40
0.013488650930057
 40
0.0269768422561013
 40
0.0405411357293878
 40
0.0541045901135245
 40
0.0677838266114689
 40
0.0814619810630415
 40
0.0952808516825001
 40
0.1090985550641023
 40
0.1230644639817283
 40
0.1370292680851122
 40
0.1511319348229684
 40
0.1652336779260123
 40
0.1794468283452616
 40
0.193659320424583
 40
0.2079440645811834
 40
0.2222284674606325
 40
0.2365378787354188
 40
0.2508472900102309
 40
0.2651316928896795
 40
0.2794164370462646
 40
0.2936289291255904
 40
0.3078420795448381
 40
0.3219438226478878
 40
0.3360464893857321
 40
0.3500112934891167
 40
0.3639772024067431
 40
0.3777949057883667
 40
0.3916137764078088
 40
0.4052919308593863
 40
0.4189711673573391
 40
0.4325346217414782
 40
0.4460989152147634
 40
0.4595871065408059
 40
0.4730757574708586
 40
0.4865378787354327
 40
0.5000000000000012
 40
0.5134886509300485
 40
0.5269768422560908
 40
0.5405411357293738
 40
0.554104590113507
 40
0.5677838266114617
 40
0.5814619810630446
 40
0.5952808516824998
 40
0.609098555064105
 40
0.6230644639817231
 40
0.6370292680851154
 40
0.651131934822964
 40
0.6652336779260148
 40
0.6794468283452406
 40
0.6936593204245889
 40
0.707944064581175
 40
0.7222284674606233
 40
0.7365378787354261
 40
0.7508472900102204
 40
0.7651316928896691
 40
0.7794164370462705
 40
0.7936289291255938
 40
0.807842079544843
 40
0.821943822647886
 40
0.8360464893857313
 40
0.8500112934891325
 40
0.8639772024067525
 40
0.8777949057883593
 40
0.8916137764078145
 40
0.9052919308593773
 40
0.9189711673573339
 40
0.9325346217414705
 40
0.9460989152147631
 40
0.9595871065408075
 40
0.973075757470856
 40
0.9865378787354232
 40
1.0
 40
1.0
 40
1.0
 40
1.0
 10
282.942189554239
 20
88.52628955834906
 30
0.0
 10
282.9312170757696
 20
88.64396528917862
 30
0.0
 10
282.8985920472117
 20
88.87714804641578
 30
0.0
 10
282.8169256711994
 20
89.22239153189943
 30
0.0
 10
282.7039298121688
 20
89.5591116107465
 30
0.0
 10
282.5597203095069
 20
89.88557865605421
 30
0.0
 10
282.3862376161144
 20
90.19859198225848
 30
0.0
 10
282.1839147626142
 20
90.49647705644358
 30
0.0
 10
281.9553075871734
 20
90.776259488102
 30
0.0
 10
281.7011006975508
 20
91.03651244072447
 30
0.0
 10
281.4243697457375
 20
91.27462918435666
 30
0.0
 10
281.1260765299842
 20
91.48937365529017
 30
0.0
 10
280.8096407947519
 20
91.67867288195114
 30
0.0
 10
280.4763721719487
 20
91.84144394485233
 30
0.0
 10
280.1298155563125
 20
91.976247683774
 30
0.0
 10
279.771710630645
 20
92.08217249126963
 30
0.0
 10
279.4055029225178
 20
92.15843196411632
 30
0.0
 10
279.0334207035112
 20
92.20436126609363
 30
0.0
 10
278.6586160649504
 20
92.21977173530573
 30
0.0
 10
278.2838114263907
 20
92.20436126609357
 30
0.0
 10
277.9117292073834
 20
92.15843196411831
 30
0.0
 10
277.5455214992564
 20
92.08217249126349
 30
0.0
 10
277.1874165735921
 20
91.97624768379646
 30
0.0
 10
276.840859957942
 20
91.8414439447669
 30
0.0
 10
276.5075913351889
 20
91.67867288226611
 30
0.0
 10
276.1911555997722
 20
91.48937365411953
 30
0.0
 10
275.8928623847037
 20
91.27462918867755
 30
0.0
 10
275.6161314303451
 20
91.03651242466637
 30
0.0
 10
275.3619245501259
 20
90.77625954732687
 30
0.0
 10
275.1333173397857
 20
90.49647683626685
 30
0.0
 10
274.9309946152712
 20
90.19859279470401
 30
0.0
 10
274.7575114428403
 20
89.88557563351057
 30
0.0
 10
274.6133037135824
 20
89.55912278533188
 30
0.0
 10
274.5003012598354
 20
89.22234991194452
 30
0.0
 10
274.4186593646082
 20
88.87730240941616
 30
0.0
 10
274.3696624285772
 20
88.52702549941543
 30
0.0
 10
274.3530983200192
 20
88.17395364858871
 30
0.0
 10
274.3696624285776
 20
87.82088179776244
 30
0.0
 10
274.4186593646082
 20
87.47060488776171
 30
0.0
 10
274.5003012598368
 20
87.12555738523369
 30
0.0
 10
274.6133037135817
 20
86.78878451184582
 30
0.0
 10
274.7575114428398
 20
86.46233166366736
 30
0.0
 10
274.9309946152723
 20
86.14931450247397
 30
0.0
 10
275.1333173397852
 20
85.85143046091085
 30
0.0
 10
275.3619245501266
 20
85.57164774985162
 30
0.0
 10
275.6161314303445
 20
85.31139487251116
 30
0.0
 10
275.8928623847034
 20
85.07327810850083
 30
0.0
 10
276.1911555997719
 20
84.85853364305834
 30
0.0
 10
276.5075913351891
 20
84.66923441491159
 30
0.0
 10
276.8408599579423
 20
84.50646335241086
 30
0.0
 10
277.1874165735921
 20
84.37165961338061
 30
0.0
 10
277.5455214992562
 20
84.26573480591455
 30
0.0
 10
277.9117292073829
 20
84.189475333059
 30
0.0
 10
278.2838114263905
 20
84.14354603108407
 30
0.0
 10
278.6586160649506
 20
84.12813556187243
 30
0.0
 10
279.0334207035119
 20
84.14354603108424
 30
0.0
 10
279.4055029225178
 20
84.18947533305968
 30
0.0
 10
279.7717106306457
 20
84.26573480591387
 30
0.0
 10
280.1298155563099
 20
84.37165961338272
 30
0.0
 10
280.4763721719603
 20
84.50646335240444
 30
0.0
 10
280.80964079471
 20
84.66923441493444
 30
0.0
 10
281.1260765301397
 20
84.85853364297336
 30
0.0
 10
281.4243697451595
 20
85.07327810881358
 30
0.0
 10
281.7011006997031
 20
85.31139487134655
 30
0.0
 10
281.9553075792355
 20
85.57164775414716
 30
0.0
 10
282.1839147921239
 20
85.85143044494131
 30
0.0
 10
282.3862375072208
 20
86.14931456139985
 30
0.0
 10
282.5597207146245
 20
86.46233144444571
 30
0.0
 10
282.7039283144145
 20
86.78878532232571
 30
0.0
 10
282.8169312496093
 20
87.12555436658587
 30
0.0
 10
282.8985713576126
 20
87.47061608353332
 30
0.0
 10
282.9475749516878
 20
87.82084003983826
 30
0.0
 10
282.9641142579158
 20
88.17410915202501
 30
0.0
 10
282.9531404518859
 20
88.40884527377685
 30
0.0
 10
282.9421895542391
 20
88.52628955834908
 30
0.0
  0
SPLINE
  5
12A
330
1F
100
AcDbEntity
  8
2
  6
CONTINUOUS
 62
   150
100
AcDbSpline
210
0.0
220
0.0
230
1.0
 70
    11
 71
     3
 72
    79
 73
    75
 74
     0
 42
0.000000001
 43
0.0000000001
 40
0.0
 40
0.0
 40
0.0
 40
0.0
 40
0.0134886509300555
 40
0.0269768422560937
 40
0.0405411357293854
 40
0.0541045901135183
 40
0.0677838266114793
 40
0.0814619810630322
 40
0.095280851682496
 40
0.1090985550640859
 40
0.1230644639816984
 40
0.1370292680851102
 40
0.1511319348229885
 40
0.1652336779260088
 40
0.1794468283452577
 40
0.1936593204245956
 40
0.2079440645811703
 40
0.2222284674606277
 40
0.2365378787354484
 40
0.2508472900102342
 40
0.2651316928896739
 40
0.2794164370462588
 40
0.2936289291255927
 40
0.3078420795448158
 40
0.321943822647881
 40
0.3360464893857473
 40
0.3500112934891317
 40
0.3639772024067579
 40
0.377794905788363
 40
0.3916137764078103
 40
0.4052919308593682
 40
0.4189711673573334
 40
0.4325346217414792
 40
0.4460989152147585
 40
0.4595871065408008
 40
0.4730757574708557
 40
0.4865378787354288
 40
0.4999999999999953
 40
0.5134886509300423
 40
0.5269768422560863
 40
0.5405411357293829
 40
0.5541045901135088
 40
0.5677838266114759
 40
0.581461981063039
 40
0.595280851682483
 40
0.6090985550640942
 40
0.6230644639817053
 40
0.6370292680850973
 40
0.6511319348229682
 40
0.6652336779260343
 40
0.6794468283452597
 40
0.6936593204245911
 40
0.7079440645811769
 40
0.722228467460625
 40
0.7365378787354275
 40
0.7508472900102217
 40
0.7651316928896872
 40
0.7794164370462543
 40
0.7936289291255856
 40
0.8078420795448185
 40
0.8219438226478611
 40
0.836046489385736
 40
0.850011293489144
 40
0.8639772024067637
 40
0.8777949057883884
 40
0.8916137764078214
 40
0.9052919308593792
 40
0.9189711673573399
 40
0.9325346217414727
 40
0.9460989152147706
 40
0.9595871065408088
 40
0.9730757574708557
 40
0.9865378787354235
 40
1.0
 40
1.0
 40
1.0
 40
1.0
 10
134.3750425756636
 20
88.526289558347
 30
0.0
 10
134.3860150541313
 20
88.64396528917868
 30
0.0
 10
134.4186400826898
 20
88.87714804641578
 30
0.0
 10
134.5003064587004
 20
89.22239153189955
 30
0.0
 10
134.6133023177331
 20
89.55911161074627
 30
0.0
 10
134.7575118203943
 20
89.8855786560546
 30
0.0
 10
134.9309945137868
 20
90.19859198225785
 30
0.0
 10
135.1333173672874
 20
90.49647705644392
 30
0.0
 10
135.3619245427274
 20
90.77625948810166
 30
0.0
 10
135.6161314323494
 20
91.03651244072458
 30
0.0
 10
135.8928623841632
 20
91.27462918435705
 30
0.0
 10
136.1911555999177
 20
91.48937365528982
 30
0.0
 10
136.5075913351491
 20
91.67867288195097
 30
0.0
 10
136.8408599579516
 20
91.8414439448525
 30
0.0
 10
137.1874165735885
 20
91.97624768377412
 30
0.0
 10
137.5455214992564
 20
92.0821724912694
 30
0.0
 10
137.9117292073829
 20
92.15843196411649
 30
0.0
 10
138.2838114263895
 20
92.20436126609374
 30
0.0
 10
138.658616064951
 20
92.2197717353059
 30
0.0
 10
139.0334207035114
 20
92.20436126609346
 30
0.0
 10
139.4055029225167
 20
92.15843196411831
 30
0.0
 10
139.7717106306457
 20
92.08217249126349
 30
0.0
 10
140.129815556307
 20
91.97624768379646
 30
0.0
 10
140.4763721719592
 20
91.8414439447669
 30
0.0
 10
140.8096407947114
 20
91.67867288226583
 30
0.0
 10
141.1260765301304
 20
91.48937365411999
 30
0.0
 10
141.4243697451975
 20
91.27462918867732
 30
0.0
 10
141.7011006995567
 20
91.03651242466671
 30
0.0
 10
141.9553075797751
 20
90.77625954732636
 30
0.0
 10
142.1839147901158
 20
90.49647683626725
 30
0.0
 10
142.3862375146291
 20
90.19859279470367
 30
0.0
 10
142.5597206870602
 20
89.88557563351063
 30
0.0
 10
142.7039284163193
 20
89.559122785332
 30
0.0
 10
142.8169308700649
 20
89.2223499119444
 30
0.0
 10
142.898572765293
 20
88.8773024094161
 30
0.0
 10
142.9475697013247
 20
88.52702549941549
 30
0.0
 10
142.96413380988
 20
88.17395364858876
 30
0.0
 10
142.9475697013245
 20
87.82088179776227
 30
0.0
 10
142.8985727652935
 20
87.47060488776177
 30
0.0
 10
142.8169308700649
 20
87.12555738523335
 30
0.0
 10
142.7039284163188
 20
86.78878451184644
 30
0.0
 10
142.5597206870598
 20
86.46233166366684
 30
0.0
 10
142.3862375146284
 20
86.14931450247454
 30
0.0
 10
142.183914790116
 20
85.85143046091062
 30
0.0
 10
141.9553075797753
 20
85.5716477498514
 30
0.0
 10
141.7011006995558
 20
85.31139487251133
 30
0.0
 10
141.4243697451975
 20
85.0732781085006
 30
0.0
 10
141.1260765301295
 20
84.85853364305828
 30
0.0
 10
140.8096407947119
 20
84.66923441491147
 30
0.0
 10
140.4763721719592
 20
84.50646335241103
 30
0.0
 10
140.1298155563084
 20
84.37165961338067
 30
0.0
 10
139.771710630645
 20
84.26573480591443
 30
0.0
 10
139.4055029225176
 20
84.18947533305916
 30
0.0
 10
139.0334207035107
 20
84.14354603108401
 30
0.0
 10
138.6586160649508
 20
84.12813556187243
 30
0.0
 10
138.2838114263882
 20
84.14354603108418
 30
0.0
 10
137.9117292073836
 20
84.18947533305968
 30
0.0
 10
137.5455214992555
 20
84.26573480591398
 30
0.0
 10
137.1874165735926
 20
84.37165961338266
 30
0.0
 10
136.8408599579407
 20
84.50646335240438
 30
0.0
 10
136.507591335192
 20
84.66923441493483
 30
0.0
 10
136.1911555997604
 20
84.85853364297313
 30
0.0
 10
135.8928623847414
 20
85.07327810881341
 30
0.0
 10
135.6161314301974
 20
85.31139487134689
 30
0.0
 10
135.3619245506648
 20
85.5716477541466
 30
0.0
 10
135.1333173377757
 20
85.85143044494154
 30
0.0
 10
134.9309946226811
 20
86.14931456140008
 30
0.0
 10
134.757511415276
 20
86.46233144444543
 30
0.0
 10
134.6133038154865
 20
86.78878532232605
 30
0.0
 10
134.5003008802905
 20
87.12555436658559
 30
0.0
 10
134.4186607722884
 20
87.47061608353349
 30
0.0
 10
134.3696571782143
 20
87.82084003983792
 30
0.0
 10
134.3531178719836
 20
88.174109152027
 30
0.0
 10
134.3640916780184
 20
88.40884527377264
 30
0.0
 10
134.3750425756636
 20
88.526289558347
 30
0.0
  0
SPLINE
  5
12B
330
1F
100
AcDbEntity
  8
2
  6
CONTINUOUS
 62
   150
100
AcDbSpline
210
0.0
220
0.0
230
1.0
 70
     8
 71
     3
 72
    27
 73
    23
 74
     0
 42
0.000000001
 43
0.0000000001
 40
0.0
 40
0.0
 40
0.0
 40
0.0
 40
0.0285223206070371
 40
0.0570834814487754
 40
0.1139152284229345
 40
0.1707496730125371
 40
0.2268814283835316
 40
0.2830185872426538
 40
0.3380619398142723
 40
0.3931133460716105
 40
0.4467928829966499
 40
0.5004828478200886
 40
0.5526737251163398
 40
0.6048766696797299
 40
0.6556310177895633
 40
0.7063976366419789
 40
0.7559523382778378
 40
0.8055173558793247
 40
0.8542752519447289
 40
0.9030391204370047
 40
0.9515195602185018
 40
1.0
 40
1.0
 40
1.0
 40
1.0
 10
286.9586160649505
 20
86.3053218278217
 30
0.0
 10
286.9586089260426
 20
86.16299121589103
 30
0.0
 10
286.9533503863283
 20
85.87835507133352
 30
0.0
 10
286.9219544124501
 20
85.31090703952165
 30
0.0
 10
286.8434756702757
 20
84.60519954751837
 30
0.0
 10
286.6874954615494
 20
83.77200660058114
 30
0.0
 10
286.4702955404912
 20
82.95620332259031
 30
0.0
 10
286.1944972948077
 20
82.16772629496344
 30
0.0
 10
285.8605716853351
 20
81.40792797969615
 30
0.0
 10
285.4731620477403
 20
80.687786470318
 30
0.0
 10
285.0322977247411
 20
80.00708760991458
 30
0.0
 10
284.5446898514347
 20
79.37691312946285
 30
0.0
 10
284.0099356723617
 20
78.7961715880081
 30
0.0
 10
283.4364494376491
 20
78.27506754116385
 30
0.0
 10
282.8238011294377
 20
77.81228276984265
 30
0.0
 10
282.1813559825573
 20
77.41633577785845
 30
0.0
 10
281.5093810466781
 20
77.08606643668591
 30
0.0
 10
280.8171944507696
 20
76.82784954756053
 30
0.0
 10
280.1065409583871
 20
76.64064741828238
 30
0.0
 10
279.3858324731489
 20
76.52864586740199
 30
0.0
 10
278.6582241955798
 20
76.49058867909227
 30
0.0
 10
278.1756629336974
 20
76.5157379446654
 30
0.0
 10
277.9341863680791
 20
76.5408007868169
 30
0.0
  0
SPLINE
  5
12C
330
1F
100
AcDbEntity
  8
2
  6
CONTINUOUS
 62
   150
100
AcDbSpline
210
0.0
220
0.0
230
1.0
 70
     8
 71
     3
 72
    45
 73
    41
 74
     0
 42
0.000000001
 43
0.0000000001
 40
0.0
 40
0.0
 40
0.0
 40
0.0
 40
0.012989512240348
 40
0.0260113230663588
 40
0.0521276758089088
 40
0.0782418080585281
 40
0.1046788792819148
 40
0.131112033206688
 40
0.158032514634014
 40
0.1849481926553983
 40
0.2124499903953863
 40
0.2399469003206494
 40
0.2680542599673607
 40
0.2961572548265944
 40
0.3248221595497329
 40
0.3534835977613876
 40
0.3825951661979961
 40
0.4117043596698926
 40
0.4411036747167618
 40
0.4705017887689807
 40
0.499999999994909
 40
0.5294982112208275
 40
0.5588963252730649
 40
0.5882956403199263
 40
0.6174048337918349
 40
0.6465164022284323
 40
0.6751778404401094
 40
0.7038427451632352
 40
0.7319457400224522
 40
0.7600530996691938
 40
0.7875500095944302
 40
0.8150518073344277
 40
0.8419674853558158
 40
0.8688879667831391
 40
0.8953211207079043
 40
0.921758191931278
 40
0.9478723241809041
 40
0.9739886769234682
 40
0.9870104877545742
 40
1.0
 40
1.0
 40
1.0
 40
1.0
 10
270.3586160649511
 20
86.30532182760365
 30
0.0
 10
270.3586291962483
 20
86.19905385474127
 30
0.0
 10
270.3639169637372
 20
85.98654920152623
 30
0.0
 10
270.3958240517447
 20
85.56147925806701
 30
0.0
 10
270.4747980517752
 20
85.03308155205528
 30
0.0
 10
270.6329742637392
 20
84.4088102525088
 30
0.0
 10
270.8514186355917
 20
83.8002289687889
 30
0.0
 10
271.1305969355424
 20
83.20975534004978
 30
0.0
 10
271.4657234277333
 20
82.64460068662984
 30
0.0
 10
271.8571159793619
 20
82.10607318479268
 30
0.0
 10
272.2983875047162
 20
81.6013376800291
 30
0.0
 10
272.7897723857961
 20
81.13111777616089
 30
0.0
 10
273.3235951360068
 20
80.70182400203927
 30
0.0
 10
273.8997865989991
 20
80.31404776337027
 30
0.0
 10
274.5099442322801
 20
79.97290954238392
 30
0.0
 10
275.1532949974812
 20
79.67912658473827
 30
0.0
 10
275.821399455031
 20
79.43625246200364
 30
0.0
 10
276.512340769438
 20
79.24513530998448
 30
0.0
 10
277.2183254177075
 20
79.1077640232368
 30
0.0
 10
277.9359478600752
 20
79.02488960453937
 30
0.0
 10
278.658616064951
 20
78.9971759905525
 30
0.0
 10
279.3812842698267
 20
79.02488960453897
 30
0.0
 10
280.0989067121948
 20
79.10776402323651
 30
0.0
 10
280.8048913604637
 20
79.24513530998448
 30
0.0
 10
281.4958326748708
 20
79.43625246200381
 30
0.0
 10
282.1639371324206
 20
79.67912658473844
 30
0.0
 10
282.8072878976222
 20
79.97290954238318
 30
0.0
 10
283.4174455309028
 20
80.31404776337033
 30
0.0
 10
283.9936369938946
 20
80.70182400203984
 30
0.0
 10
284.5274597441066
 20
81.1311177761601
 30
0.0
 10
285.0188446251843
 20
81.60133768002967
 30
0.0
 10
285.46011615054
 20
82.10607318479234
 30
0.0
 10
285.851508702169
 20
82.64460068662922
 30
0.0
 10
286.1866351943597
 20
83.20975534004961
 30
0.0
 10
286.465813494309
 20
83.80022896878873
 30
0.0
 10
286.6842578661615
 20
84.40881025250812
 30
0.0
 10
286.8424340781266
 20
85.03308155205505
 30
0.0
 10
286.9214080781635
 20
85.56147925810748
 30
0.0
 10
286.9533151661735
 20
85.98654920165146
 30
0.0
 10
286.9586029336585
 20
86.1990538549476
 30
0.0
 10
286.9586160649505
 20
86.30532182785302
 30
0.0
  0
MTEXT
  5
12D
330
1F
100
AcDbEntity
  8
1
  6
CONTINUOUS
 62
   150
100
AcDbMText
 10
392.927836
 20
181.527159
 30
0.0
 40
3.5
 41
0.0
 71
     7
 72
     5
  3
\W1.0000;! ACHTUNG !\PJede Vervielfältigung, Verwertung oder Weitergabe dieser Zeichnung ohne unsere ausdrückliche schriftliche\PGenehmigung ist aufgrund bestehender gesetzlicher Vorschriften untersagt und wird strafrechtlich verfolgt.\PAlle Rechte 
  1
vorbehalten.\P\P! ATTENTION !\PAny reproduction, recovery, or transfer of this drawing without our express written\Ppermission is prohibited under existing legislation and will be prosecuted.\PAll rights reserved.\P 
  7
ISO-1
1001
ACAD
1000
MTEXTBEGIN
1070
    44
1040
0.963855
1000
MTEXTEND
  0
MTEXT
  5
130
330
1F
100
AcDbEntity
  8
1
  6
CONTINUOUS
 62
   150
100
AcDbMText
 10
502.227178
 20
170.546771
 30
0.0
 40
5.0
 41
0.0
 71
     7
 72
     5
  1
\W1.0000;26799W
  7
ISO-1
1001
ACAD
1000
MTEXTBEGIN
1070
    73
1070
     2
1070
    44
1040
0.963855
1000
MTEXTEND
  0
ENDSEC
  0
SECTION
  2
OBJECTS
  0
DICTIONARY
  5
C
330
0
100
AcDbDictionary
  3
ACAD_GROUP
350
D
  3
ACAD_LAYOUT
350
1A
  3
ACAD_MATERIAL
350
43
  3
ACAD_MLEADERSTYLE
350
16C
  3
ACAD_MLINESTYLE
350
17
  3
ACAD_PLOTSETTINGS
350
19
  3
ACAD_SCALELIST
350
47
  3
ACAD_VISUALSTYLE
350
2A
  3
ACDBHEADERROUNDTRIPXREC
350
14A
  3
ACDBVARIABLEDICTIONARY
350
16A
  0
DICTIONARY
  5
D
102
{ACAD_REACTORS
330
C
102
}
330
C
100
AcDbDictionary
  0
DICTIONARY
  5
1A
102
{ACAD_REACTORS
330
C
102
}
330
C
100
AcDbDictionary
  0
DICTIONARY
  5
43
102
{ACAD_REACTORS
330
C
102
}
330
C
100
AcDbDictionary
  3
BYBLOCK
350
45
  3
BYLAYER
350
44
  3
GLOBAL
350
46
  0
DICTIONARY
  5
16C
102
{ACAD_REACTORS
330
C
102
}
330
C
100
AcDbDictionary
  0
DICTIONARY
  5
17
102
{ACAD_REACTORS
330
C
102
}
330
C
100
AcDbDictionary
  3
STANDARD
350
18
  0
DICTIONARY
  5
19
102
{ACAD_REACTORS
330
C
102
}
330
C
100
AcDbDictionary
  0
DICTIONARY
  5
47
102
{ACAD_REACTORS
330
C
102
}
330
C
100
AcDbDictionary
  3
A0
350
48
  3
A1
350
49
  3
A2
350
4A
  3
A3
350
4B
  3
A4
350
4C
  3
A5
350
4D
  3
A6
350
4E
  3
A7
350
4F
  3
A8
350
50
  3
A9
350
51
  3
B0
350
52
  3
B1
350
53
  3
B2
350
54
  3
B3
350
55
  3
B4
350
56
  3
B5
350
57
  3
B6
350
58
  3
B7
350
59
  3
B8
350
5A
  3
B9
350
5B
  3
C0
350
5C
  3
C1
350
5D
  3
C2
350
5E
  3
C3
350
5F
  3
C4
350
60
  3
C5
350
61
  3
C6
350
62
  3
C7
350
63
  3
C8
350
64
  3
C9
350
65
  3
D0
350
66
  3
D1
350
67
  3
D2
350
68
  0
DICTIONARY
  5
2A
102
{ACAD_REACTORS
330
C
102
}
330
C
100
AcDbDictionary
  3
2DWIREFRAME
350
2F
  3
BASIC
350
32
  3
BRIGHTEN
350
36
  3
COLORCHANGE
350
3A
  3
CONCEPTUAL
350
34
  3
DIM
350
35
  3
EDGECOLOROFF
350
3D
  3
FACEPATTERN
350
39
  3
FLAT
350
2B
  3
FLATWITHEDGES
350
2C
  3
GOURAUD
350
2D
  3
GOURAUDWITHEDGES
350
2E
  3
HIDDEN
350
31
  3
JITTEROFF
350
3B
  3
LINEPATTERN
350
38
  3
OVERHANGOFF
350
3C
  3
REALISTIC
350
33
  3
SHADED
350
42
  3
SHADED_WITH_EDGES
350
41
  3
SHADES_OF_GRAY
350
3E
  3
SKETCHY
350
3F
  3
THICKEN
350
37
  3
WIREFRAME
350
30
  3
X-RAY
350
40
  0
DICTIONARY
  5
14A
102
{ACAD_REACTORS
330
C
102
}
330
C
100
AcDbDictionary
  3
CEPSNTYPE
350
153
  3
DIMSTYLEDATA
350
169
  3
FINGERPRINTGUID
350
154
  3
HYPERLINKBASE
350
14D
  3
INSUNITS
350
152
  3
LAYOUTDICT
350
14F
  3
LWETCUNION
350
151
  3
PLOTSETDICT
350
150
  3
PSVPSCALE
350
156
  3
PUCSBASE
350
159
  3
PUCSORGBACK
350
15F
  3
PUCSORGBOTTOM
350
15B
  3
PUCSORGFRONT
350
15E
  3
PUCSORGLEFT
350
15C
  3
PUCSORGRIGHT
350
15D
  3
PUCSORGTOP
350
15A
  3
PUCSORTHOREF
350
157
  3
PUCSORTHOVIEW
350
158
  3
STYLESHEET
350
14E
  3
TSTACKALIGN
350
14B
  3
TSTACKSIZE
350
14C
  3
UCSBASE
350
162
  3
UCSORGBACK
350
168
  3
UCSORGBOTTOM
350
164
  3
UCSORGFRONT
350
167
  3
UCSORGLEFT
350
165
  3
UCSORGRIGHT
350
166
  3
UCSORGTOP
350
163
  3
UCSORTHOREF
350
160
  3
UCSORTHOVIEW
350
161
  3
VERSIONGUID
350
155
  0
DICTIONARY
  5
16A
102
{ACAD_REACTORS
330
C
102
}
330
C
100
AcDbDictionary
  3
CANNOSCALE
350
171
  3
DIMASSOC
350
16F
  3
HIDETEXT
350
170
  3
MSLTSCALE
350
172
  0
MATERIAL
  5
45
102
{ACAD_REACTORS
330
43
102
}
102
{ACAD_XDICTIONARY
360
175
102
}
330
43
100
AcDbMaterial
  1
BYBLOCK
  0
MATERIAL
  5
44
102
{ACAD_REACTORS
330
43
102
}
102
{ACAD_XDICTIONARY
360
173
102
}
330
43
100
AcDbMaterial
  1
BYLAYER
  0
MATERIAL
  5
46
102
{ACAD_REACTORS
330
43
102
}
102
{ACAD_XDICTIONARY
360
177
102
}
330
43
100
AcDbMaterial
  1
GLOBAL
  0
MLINESTYLE
  5
18
102
{ACAD_REACTORS
330
17
102
}
330
17
100
AcDbMlineStyle
  2
Standard
 70
     0
  3

 62
   256
 51
90.0
 52
90.0
 71
     2
 49
0.5
 62
   256
  6
BYLAYER
 49
-0.5
 62
   256
  6
BYLAYER
  0
ACAD_PROXY_OBJECT
  5
48
102
{ACAD_REACTORS
330
47
102
}
330
47
100
AcDbProxyObject
 90
      499
 91
      503
 93
       41
310
903313A31580
  0
ACAD_PROXY_OBJECT
  5
49
102
{ACAD_REACTORS
330
47
102
}
330
47
100
AcDbProxyObject
 90
      499
 91
      503
 93
      105
310
903313A324000000000000004000
  0
ACAD_PROXY_OBJECT
  5
4A
102
{ACAD_REACTORS
330
47
102
}
330
47
100
AcDbProxyObject
 90
      499
 91
      503
 93
      105
310
903313A344000000000000104000
  0
ACAD_PROXY_OBJECT
  5
4B
102
{ACAD_REACTORS
330
47
102
}
330
47
100
AcDbProxyObject
 90
      499
 91
      503
 93
      105
310
903313A354000000000000144000
  0
ACAD_PROXY_OBJECT
  5
4C
102
{ACAD_REACTORS
330
47
102
}
330
47
100
AcDbProxyObject
 90
      499
 91
      503
 93
      105
310
903313A384000000000000204000
  0
ACAD_PROXY_OBJECT
  5
4D
102
{ACAD_REACTORS
330
47
102
}
330
47
100
AcDbProxyObject
 90
      499
 91
      503
 93
      113
310
904313A31304000000000000244000
  0
ACAD_PROXY_OBJECT
  5
4E
102
{ACAD_REACTORS
330
47
102
}
330
47
100
AcDbProxyObject
 90
      499
 91
      503
 93
      113
310
904313A31364000000000000304000
  0
ACAD_PROXY_OBJECT
  5
4F
102
{ACAD_REACTORS
330
47
102
}
330
47
100
AcDbProxyObject
 90
      499
 91
      503
 93
      113
310
904313A32304000000000000344000
  0
ACAD_PROXY_OBJECT
  5
50
102
{ACAD_REACTORS
330
47
102
}
330
47
100
AcDbProxyObject
 90
      499
 91
      503
 93
      113
310
904313A333040000000000003E4000
  0
ACAD_PROXY_OBJECT
  5
51
102
{ACAD_REACTORS
330
47
102
}
330
47
100
AcDbProxyObject
 90
      499
 91
      503
 93
      113
310
904313A34304000000000000444000
  0
ACAD_PROXY_OBJECT
  5
52
102
{ACAD_REACTORS
330
47
102
}
330
47
100
AcDbProxyObject
 90
      499
 91
      503
 93
      113
310
904313A35304000000000000494000
  0
ACAD_PROXY_OBJECT
  5
53
102
{ACAD_REACTORS
330
47
102
}
330
47
100
AcDbProxyObject
 90
      499
 91
      503
 93
      121
310
905313A3130304000000000000594000
  0
ACAD_PROXY_OBJECT
  5
54
102
{ACAD_REACTORS
330
47
102
}
330
47
100
AcDbProxyObject
 90
      499
 91
      503
 93
      105
310
903323A310000000000000010100
  0
ACAD_PROXY_OBJECT
  5
55
102
{ACAD_REACTORS
330
47
102
}
330
47
100
AcDbProxyObject
 90
      499
 91
      503
 93
      105
310
903343A310000000000000410100
  0
ACAD_PROXY_OBJECT
  5
56
102
{ACAD_REACTORS
330
47
102
}
330
47
100
AcDbProxyObject
 90
      499
 91
      503
 93
      105
310
903383A310000000000000810100
  0
ACAD_PROXY_OBJECT
  5
57
102
{ACAD_REACTORS
330
47
102
}
330
47
100
AcDbProxyObject
 90
      499
 91
      503
 93
      113
310
90431303A310000000000000910100
  0
ACAD_PROXY_OBJECT
  5
58
102
{ACAD_REACTORS
330
47
102
}
330
47
100
AcDbProxyObject
 90
      499
 91
      503
 93
      121
310
9053130303A310000000000001650100
  0
ACAD_PROXY_OBJECT
  5
59
102
{ACAD_REACTORS
330
47
102
}
330
47
100
AcDbProxyObject
 90
      499
 91
      503
 93
      257
310
90E312F31323822203D2031272D3022000000000000200FC000000000000284000
  0
ACAD_PROXY_OBJECT
  5
5A
102
{ACAD_REACTORS
330
47
102
}
330
47
100
AcDbProxyObject
 90
      499
 91
      503
 93
      249
310
90D312F363422203D2031272D3022000000000000240FC000000000000284000
  0
ACAD_PROXY_OBJECT
  5
5B
102
{ACAD_REACTORS
330
47
102
}
330
47
100
AcDbProxyObject
 90
      499
 91
      503
 93
      249
310
90D312F333222203D2031272D3022000000000000280FC000000000000284000
  0
ACAD_PROXY_OBJECT
  5
5C
102
{ACAD_REACTORS
330
47
102
}
330
47
100
AcDbProxyObject
 90
      499
 91
      503
 93
      249
310
90D312F313622203D2031272D30220000000000002C0FC000000000000284000
  0
ACAD_PROXY_OBJECT
  5
5D
102
{ACAD_REACTORS
330
47
102
}
330
47
100
AcDbProxyObject
 90
      499
 91
      503
 93
      249
310
90D332F333222203D2031272D30220000000000002E0FC000000000000284000
  0
ACAD_PROXY_OBJECT
  5
5E
102
{ACAD_REACTORS
330
47
102
}
330
47
100
AcDbProxyObject
 90
      499
 91
      503
 93
      241
310
90C312F3822203D2031272D3022000000000000300FC000000000000284000
  0
ACAD_PROXY_OBJECT
  5
5F
102
{ACAD_REACTORS
330
47
102
}
330
47
100
AcDbProxyObject
 90
      499
 91
      503
 93
      249
310
90D332F313622203D2031272D3022000000000000320FC000000000000284000
  0
ACAD_PROXY_OBJECT
  5
60
102
{ACAD_REACTORS
330
47
102
}
330
47
100
AcDbProxyObject
 90
      499
 91
      503
 93
      241
310
90C312F3422203D2031272D3022000000000000340FC000000000000284000
  0
ACAD_PROXY_OBJECT
  5
61
102
{ACAD_REACTORS
330
47
102
}
330
47
100
AcDbProxyObject
 90
      499
 91
      503
 93
      241
310
90C332F3822203D2031272D3022000000000000360FC000000000000284000
  0
ACAD_PROXY_OBJECT
  5
62
102
{ACAD_REACTORS
330
47
102
}
330
47
100
AcDbProxyObject
 90
      499
 91
      503
 93
      241
310
90C312F3222203D2031272D3022000000000000380FC000000000000284000
  0
ACAD_PROXY_OBJECT
  5
63
102
{ACAD_REACTORS
330
47
102
}
330
47
100
AcDbProxyObject
 90
      499
 91
      503
 93
      241
310
90C332F3422203D2031272D30220000000000003A0FC000000000000284000
  0
ACAD_PROXY_OBJECT
  5
64
102
{ACAD_REACTORS
330
47
102
}
330
47
100
AcDbProxyObject
 90
      499
 91
      503
 93
      161
310
90A3122203D2031272D30224000000000000284000
  0
ACAD_PROXY_OBJECT
  5
65
102
{ACAD_REACTORS
330
47
102
}
330
47
100
AcDbProxyObject
 90
      499
 91
      503
 93
      257
310
90E312D312F3222203D2031272D30220000000000003E0FC000000000000284000
  0
ACAD_PROXY_OBJECT
  5
66
102
{ACAD_REACTORS
330
47
102
}
330
47
100
AcDbProxyObject
 90
      499
 91
      503
 93
      225
310
90A3322203D2031272D302200000000000002100000000000000284000
  0
ACAD_PROXY_OBJECT
  5
67
102
{ACAD_REACTORS
330
47
102
}
330
47
100
AcDbProxyObject
 90
      499
 91
      503
 93
      225
310
90A3622203D2031272D302200000000000006100000000000000284000
  0
ACAD_PROXY_OBJECT
  5
68
102
{ACAD_REACTORS
330
47
102
}
330
47
100
AcDbProxyObject
 90
      499
 91
      503
 93
      249
310
90D31272D3022203D2031272D30220000000000000A100000000000000284000
  0
ACAD_PROXY_OBJECT
  5
2F
102
{ACAD_REACTORS
330
2A
102
}
330
2A
100
AcDbProxyObject
 90
      499
 91
      501
 93
      436
310
42CC9915DA5C99599C985B595049028333333333333E33F0000000000000F90107901411070040501600405405064090741402480A0340
1001
ACAD
1000
AcDbSavedByObjectVersion
1070
     0
  0
ACAD_PROXY_OBJECT
  5
32
102
{ACAD_REACTORS
330
2A
102
}
330
2A
100
AcDbProxyObject
 90
      499
 91
      501
 93
      388
310
4150985CDA58D07406404333333333333E33F0000000000000F90107A41107004050150841D405064090741402480A0350
1001
ACAD
1000
AcDbSavedByObjectVersion
1070
     0
  0
ACAD_PROXY_OBJECT
  5
36
102
{ACAD_REACTORS
330
2A
102
}
330
2A
100
AcDbProxyObject
 90
      499
 91
      501
 93
      428
310
42109C9A59DA1D195B90C409028333333333333E33F0000000000000F9010790141107004050150841D405064090741402480A029950
1001
ACAD
1000
AcDbSavedByObjectVersion
1070
     0
  0
ACAD_PROXY_OBJECT
  5
3A
102
{ACAD_REACTORS
330
2A
102
}
330
2A
100
AcDbProxyObject
 90
      499
 91
      501
 93
      452
310
42D0DBDB1BDC90DA185B99D95104090240C333333333333E33F0000000000000F90108901411070040501508421405064090741402480A0350
1001
ACAD
1000
AcDbSavedByObjectVersion
1070
     0
  0
ACAD_PROXY_OBJECT
  5
34
102
{ACAD_REACTORS
330
2A
102
}
330
2A
100
AcDbProxyObject
 90
      499
 91
      501
 93
      500
310
4290DBDB98D95C1D1D585B10940D028333333333333E33F0000000000000F90107902409070040501000000000018199010841D405064090740C02480A0340
1001
ACAD
1000
AcDbSavedByObjectVersion
1070
     0
  0
ACAD_PROXY_OBJECT
  5
35
102
{ACAD_REACTORS
330
2A
102
}
330
2A
100
AcDbProxyObject
 90
      499
 91
      501
 93
      412
310
40D11A5B50B409028333333333333E33F0000000000000F9010790141107004050150841D405064090741402480A02677FFFFFD0
1001
ACAD
1000
AcDbSavedByObjectVersion
1070
     0
  0
ACAD_PROXY_OBJECT
  5
3D
102
{ACAD_REACTORS
330
2A
102
}
330
2A
100
AcDbProxyObject
 90
      499
 91
      501
 93
      452
310
43115919D950DBDB1BDC93D999916409028333333333333E33F0000000000000F9010790141107004050150841D405064090741402480A0350
1001
ACAD
1000
AcDbSavedByObjectVersion
1070
     0
  0
ACAD_PROXY_OBJECT
  5
39
102
{ACAD_REACTORS
330
2A
102
}
330
2A
100
AcDbProxyObject
 90
      499
 91
      501
 93
      444
310
42D19858D95C185D1D195C9B90F409028333333333333E33F0000000000000F9010790141107004050150841D405064090741402480A0350
1001
ACAD
1000
AcDbSavedByObjectVersion
1070
     0
  0
ACAD_PROXY_OBJECT
  5
2B
102
{ACAD_REACTORS
330
2A
102
}
330
2A
100
AcDbProxyObject
 90
      499
 91
      501
 93
      380
310
41119B185D240901404333333333333E33F0000000000000F9010740A907004050150841D405064090741402480A1B50
1001
ACAD
1000
AcDbSavedByObjectVersion
1070
     0
  0
ACAD_PROXY_OBJECT
  5
2C
102
{ACAD_REACTORS
330
2A
102
}
330
2A
100
AcDbProxyObject
 90
      499
 91
      501
 93
      468
310
43519B185D15DA5D1A115919D95CD0140901404333333333333E33F0000000000000F90107409019070040501600405405064090741402480A1B50
1001
ACAD
1000
AcDbSavedByObjectVersion
1070
     0
  0
ACAD_PROXY_OBJECT
  5
2D
102
{ACAD_REACTORS
330
2A
102
}
330
2A
100
AcDbProxyObject
 90
      499
 91
      501
 93
      404
310
41D1DBDD5C985D5910240902404333333333333E33F0000000000000F9010740A9070040501641D405064090741402480A1B50
1001
ACAD
1000
AcDbSavedByObjectVersion
1070
     0
  0
ACAD_PROXY_OBJECT
  5
2E
102
{ACAD_REACTORS
330
2A
102
}
330
2A
100
AcDbProxyObject
 90
      499
 91
      501
 93
      492
310
4411DBDD5C985D5915DA5D1A115919D95CD0340902404333333333333E33F0000000000000F90107409019070040501600405405064090741402480A1B50
1001
ACAD
1000
AcDbSavedByObjectVersion
1070
     0
  0
ACAD_PROXY_OBJECT
  5
31
102
{ACAD_REACTORS
330
2A
102
}
330
2A
100
AcDbProxyObject
 90
      499
 91
      501
 93
      476
310
41921A5919195B90640502408333333333333E33F0000000000000F901079024090700405020000000000001110200405405064090740C02480A0340
1001
ACAD
1000
AcDbSavedByObjectVersion
1070
     0
  0
ACAD_PROXY_OBJECT
  5
3B
102
{ACAD_REACTORS
330
2A
102
}
330
2A
100
AcDbProxyObject
 90
      499
 91
      501
 93
      428
310
42529A5D1D195C93D999914409028333333333333E33F0000000000000F9010790141107004050150A41D405064090741402480A0350
1001
ACAD
1000
AcDbSavedByObjectVersion
1070
     0
  0
ACAD_PROXY_OBJECT
  5
38
102
{ACAD_REACTORS
330
2A
102
}
330
2A
100
AcDbProxyObject
 90
      499
 91
      501
 93
      444
310
42D31A5B995C185D1D195C9B90E409028333333333333E33F0000000000000F9010790141107004050750841D405064090741402483A0350
1001
ACAD
1000
AcDbSavedByObjectVersion
1070
     0
  0
ACAD_PROXY_OBJECT
  5
3C
102
{ACAD_REACTORS
330
2A
102
}
330
2A
100
AcDbProxyObject
 90
      499
 91
      501
 93
      444
310
42D3DD995C9A185B99D3D999915409028333333333333E33F0000000000000F9010790141107004050150941D405064090741402480A0350
1001
ACAD
1000
AcDbSavedByObjectVersion
1070
     0
  0
ACAD_PROXY_OBJECT
  5
33
102
{ACAD_REACTORS
330
2A
102
}
330
2A
100
AcDbProxyObject
 90
      499
 91
      501
 93
      428
310
425499585B1A5CDD1A58D08409038333333333333E33F0000000000000F9010740A907004050150800405405064090740C02480A1B40
1001
ACAD
1000
AcDbSavedByObjectVersion
1070
     0
  0
ACAD_PROXY_OBJECT
  5
42
102
{ACAD_REACTORS
330
2A
102
}
330
2A
100
AcDbProxyObject
 90
      499
 91
      501
 93
      420
310
4194DA1859195911B40902404333333333333E33F0000000000000F9010740A41107004050150800405405064090840C02480A0B40
1001
ACAD
1000
AcDbSavedByObjectVersion
1070
     0
  0
ACAD_PROXY_OBJECT
  5
41
102
{ACAD_REACTORS
330
2A
102
}
330
2A
100
AcDbProxyObject
 90
      499
 91
      501
 93
      516
310
4454DA18591959081DDA5D1A08195919D95CD1A40902404333333333333E33F0000000000000F901074090142907004050250800405405064090740C02480A0B40
1001
ACAD
1000
AcDbSavedByObjectVersion
1070
     0
  0
ACAD_PROXY_OBJECT
  5
3E
102
{ACAD_REACTORS
330
2A
102
}
330
2A
100
AcDbProxyObject
 90
      499
 91
      501
 93
      532
310
4394DA1859195CC81BD98811DC985E5174090240C333333333333E33F0000000000000F901079024090741D01000000000000111010841D405064090740C02480A0340
1001
ACAD
1000
AcDbSavedByObjectVersion
1070
     0
  0
ACAD_PROXY_OBJECT
  5
3F
102
{ACAD_REACTORS
330
2A
102
}
330
2A
100
AcDbProxyObject
 90
      499
 91
      501
 93
      476
310
41D4DAD95D18DA1E51840502408333333333333E33F0000000000000F901079024090741D01000000000000111010B41D405064090741802480A0340
1001
ACAD
1000
AcDbSavedByObjectVersion
1070
     0
  0
ACAD_PROXY_OBJECT
  5
37
102
{ACAD_REACTORS
330
2A
102
}
330
2A
100
AcDbProxyObject
 90
      499
 91
      501
 93
      412
310
41D51A1A58DAD95B90D409028333333333333E33F0000000000000F9010790141107004050150C41D405064090741402480A0350
1001
ACAD
1000
AcDbSavedByObjectVersion
1070
     0
  0
ACAD_PROXY_OBJECT
  5
30
102
{ACAD_REACTORS
330
2A
102
}
330
2A
100
AcDbProxyObject
 90
      499
 91
      501
 93
      420
310
4255DA5C99599C985B595059028333333333333E33F0000000000000F90107901411070040501600405405064090740C02480A0340
1001
ACAD
1000
AcDbSavedByObjectVersion
1070
     0
  0
ACAD_PROXY_OBJECT
  5
40
102
{ACAD_REACTORS
330
2A
102
}
330
2A
100
AcDbProxyObject
 90
      499
 91
      501
 93
      404
310
41560B54985E51940902404000000000000E03F0000000000000F9010740501907004050150841D405064090740C02480A1B40
1001
ACAD
1000
AcDbSavedByObjectVersion
1070
     0
  0
XRECORD
  5
153
102
{ACAD_REACTORS
330
14A
102
}
330
14A
100
AcDbXrecord
 90
        0
  0
XRECORD
  5
169
102
{ACAD_REACTORS
330
14A
102
}
330
14A
100
AcDbXrecord
1000
DSTYLE
1002
{
1070
   171
 70
     2
1070
   143
 40
25.4
1070
   274
 70
     2
1070
    41
 40
0.18
1070
   141
 40
0.09
1070
   271
 70
     4
1070
    43
 40
0.38
1070
   278
 70
    46
1070
    44
 40
0.18
1070
    42
 40
0.0625
1070
   147
 40
0.09
1070
    77
 70
     0
1070
   272
 70
     4
1070
    73
 70
     1
1070
   172
 70
     0
1070
    74
 70
     1
1070
   283
 70
     1
1070
   340
340
11
1070
   140
 40
0.18
1070
   284
 70
     0
1070
    78
 70
     0
1002
}
  0
XRECORD
  5
154
102
{ACAD_REACTORS
330
14A
102
}
330
14A
100
AcDbXrecord
  1
{11166DBB-DE4E-4704-928D-C422D46A6110}
  0
XRECORD
  5
14D
102
{ACAD_REACTORS
330
14A
102
}
330
14A
100
AcDbXrecord
  1

  0
XRECORD
  5
152
102
{ACAD_REACTORS
330
14A
102
}
330
14A
100
AcDbXrecord
 90
        4
  0
XRECORD
  5
14F
102
{ACAD_REACTORS
330
14A
102
}
330
14A
100
AcDbXrecord
340
1A
  0
XRECORD
  5
151
102
{ACAD_REACTORS
330
14A
102
}
330
14A
100
AcDbXrecord
 90
    10781
  0
XRECORD
  5
150
102
{ACAD_REACTORS
330
14A
102
}
330
14A
100
AcDbXrecord
340
19
  0
XRECORD
  5
156
102
{ACAD_REACTORS
330
14A
102
}
330
14A
100
AcDbXrecord
 40
0.0
  0
XRECORD
  5
159
102
{ACAD_REACTORS
330
14A
102
}
330
14A
100
AcDbXrecord
340
0
  0
XRECORD
  5
15F
102
{ACAD_REACTORS
330
14A
102
}
330
14A
100
AcDbXrecord
 10
0.0
 20
0.0
 30
0.0
  0
XRECORD
  5
15B
102
{ACAD_REACTORS
330
14A
102
}
330
14A
100
AcDbXrecord
 10
0.0
 20
0.0
 30
0.0
  0
XRECORD
  5
15E
102
{ACAD_REACTORS
330
14A
102
}
330
14A
100
AcDbXrecord
 10
0.0
 20
0.0
 30
0.0
  0
XRECORD
  5
15C
102
{ACAD_REACTORS
330
14A
102
}
330
14A
100
AcDbXrecord
 10
0.0
 20
0.0
 30
0.0
  0
XRECORD
  5
15D
102
{ACAD_REACTORS
330
14A
102
}
330
14A
100
AcDbXrecord
 10
0.0
 20
0.0
 30
0.0
  0
XRECORD
  5
15A
102
{ACAD_REACTORS
330
14A
102
}
330
14A
100
AcDbXrecord
 10
0.0
 20
0.0
 30
0.0
  0
XRECORD
  5
157
102
{ACAD_REACTORS
330
14A
102
}
330
14A
100
AcDbXrecord
340
0
  0
XRECORD
  5
158
102
{ACAD_REACTORS
330
14A
102
}
330
14A
100
AcDbXrecord
 70
     0
  0
XRECORD
  5
14E
102
{ACAD_REACTORS
330
14A
102
}
330
14A
100
AcDbXrecord
  1

  0
XRECORD
  5
14B
102
{ACAD_REACTORS
330
14A
102
}
330
14A
100
AcDbXrecord
 90
        1
  0
XRECORD
  5
14C
102
{ACAD_REACTORS
330
14A
102
}
330
14A
100
AcDbXrecord
 90
       70
  0
XRECORD
  5
162
102
{ACAD_REACTORS
330
14A
102
}
330
14A
100
AcDbXrecord
340
0
  0
XRECORD
  5
168
102
{ACAD_REACTORS
330
14A
102
}
330
14A
100
AcDbXrecord
 10
0.0
 20
0.0
 30
0.0
  0
XRECORD
  5
164
102
{ACAD_REACTORS
330
14A
102
}
330
14A
100
AcDbXrecord
 10
0.0
 20
0.0
 30
0.0
  0
XRECORD
  5
167
102
{ACAD_REACTORS
330
14A
102
}
330
14A
100
AcDbXrecord
 10
0.0
 20
0.0
 30
0.0
  0
XRECORD
  5
165
102
{ACAD_REACTORS
330
14A
102
}
330
14A
100
AcDbXrecord
 10
0.0
 20
0.0
 30
0.0
  0
XRECORD
  5
166
102
{ACAD_REACTORS
330
14A
102
}
330
14A
100
AcDbXrecord
 10
0.0
 20
0.0
 30
0.0
  0
XRECORD
  5
163
102
{ACAD_REACTORS
330
14A
102
}
330
14A
100
AcDbXrecord
 10
0.0
 20
0.0
 30
0.0
  0
XRECORD
  5
160
102
{ACAD_REACTORS
330
14A
102
}
330
14A
100
AcDbXrecord
340
0
  0
XRECORD
  5
161
102
{ACAD_REACTORS
330
14A
102
}
330
14A
100
AcDbXrecord
 70
     0
  0
XRECORD
  5
155
102
{ACAD_REACTORS
330
14A
102
}
330
14A
100
AcDbXrecord
  1
{FAEB1C32-E019-11D5-929B-00C0DF256EC4}
  0
DICTIONARYVAR
  5
171
102
{ACAD_REACTORS
330
16A
102
}
330
16A
100
DictionaryVariables
280
     0
  1
1:1
  0
DICTIONARYVAR
  5
16F
102
{ACAD_REACTORS
330
16A
102
}
330
16A
100
DictionaryVariables
280
     0
  1
2
  0
DICTIONARYVAR
  5
170
102
{ACAD_REACTORS
330
16A
102
}
330
16A
100
DictionaryVariables
280
     0
  1
1
  0
DICTIONARYVAR
  5
172
102
{ACAD_REACTORS
330
16A
102
}
330
16A
100
DictionaryVariables
280
     0
  1
1
  0
DICTIONARY
  5
175
330
45
100
AcDbDictionary
280
     1
  3
ACAD_XREC_ROUNDTRIP
360
176
  0
DICTIONARY
  5
173
330
44
100
AcDbDictionary
280
     1
  3
ACAD_XREC_ROUNDTRIP
360
174
  0
DICTIONARY
  5
177
330
46
100
AcDbDictionary
280
     1
  3
ACAD_XREC_ROUNDTRIP
360
178
  0
XRECORD
  5
176
102
{ACAD_REACTORS
330
175
102
}
330
175
100
AcDbXrecord
102
MATERIAL
148
0.0
149
0.0
149
0.0
 93
        0
 94
      127
282
     0
 72
     1
 77
     1
171
     1
175
     1
179
     1
273
     0
  0
XRECORD
  5
174
102
{ACAD_REACTORS
330
173
102
}
330
173
100
AcDbXrecord
102
MATERIAL
148
0.0
149
0.0
149
0.0
 93
        0
 94
      127
282
     0
 72
     1
 77
     1
171
     1
175
     1
179
     1
273
     0
  0
XRECORD
  5
178
102
{ACAD_REACTORS
330
177
102
}
330
177
100
AcDbXrecord
102
MATERIAL
148
0.0
149
0.0
149
0.0
 93
        0
 94
      127
282
     0
 72
     1
 77
     1
171
     1
175
     1
179
     1
273
     0
  0
ENDSEC
  0
EOF
