  0
SECTION
  2
HEADER
  9
$ACADVER
  1
AC1014
  9
$ACADMAINTVER
 70
     9
  9
$DWGCODEPAGE
  3
ANSI_1252
  9
$INSBASE
 10
0.0
 20
0.0
 30
0.0
  9
$EXTMIN
 10
-0.5
 20
-0.5
 30
-0.5
  9
$EXTMAX
 10
5.0
 20
5.0
 30
5.0
  9
$LIMMIN
 10
-0.5
 20
-0.5
  9
$LIMMAX
 10
5.0
 20
5.0
  9
$ORTHOMODE
 70
     0
  9
$REGENMODE
 70
     1
  9
$FILLMODE
 70
     1
  9
$QTEXTMODE
 70
     0
  9
$MIRRTEXT
 70
     1
  9
$DRAGMODE
 70
     2
  9
$LTSCALE
 40
1.0
  9
$OSMODE
 70
    37
  9
$ATTMODE
 70
     1
  9
$TEXTSIZE
 40
0.2
  9
$TRACEWID
 40
0.05
  9
$TEXTSTYLE
  7
STANDARD
  9
$CLAYER
  8
0
  9
$CELTYPE
  6
BYLAYER
  9
$CECOLOR
 62
   256
  9
$CELTSCALE
 40
1.0
  9
$DELOBJ
 70
     1
  9
$DISPSILH
 70
     0
  9
$DIMSCALE
 40
1.0
  9
$DIMASZ
 40
0.18
  9
$DIMEXO
 40
0.0625
  9
$DIMDLI
 40
0.38
  9
$DIMRND
 40
0.0
  9
$DIMDLE
 40
0.0
  9
$DIMEXE
 40
0.18
  9
$DIMTP
 40
0.0
  9
$DIMTM
 40
0.0
  9
$DIMTXT
 40
0.18
  9
$DIMCEN
 40
0.09
  9
$DIMTSZ
 40
0.0
  9
$DIMTOL
 70
     0
  9
$DIMLIM
 70
     0
  9
$DIMTIH
 70
     1
  9
$DIMTOH
 70
     1
  9
$DIMSE1
 70
     0
  9
$DIMSE2
 70
     0
  9
$DIMTAD
 70
     0
  9
$DIMZIN
 70
     0
  9
$DIMBLK
  1

  9
$DIMASO
 70
     1
  9
$DIMSHO
 70
     1
  9
$DIMPOST
  1

  9
$DIMAPOST
  1

  9
$DIMALT
 70
     0
  9
$DIMALTD
 70
     2
  9
$DIMALTF
 40
25.4
  9
$DIMLFAC
 40
1.0
  9
$DIMTOFL
 70
     0
  9
$DIMTVP
 40
0.0
  9
$DIMTIX
 70
     0
  9
$DIMSOXD
 70
     0
  9
$DIMSAH
 70
     0
  9
$DIMBLK1
  1

  9
$DIMBLK2
  1

  9
$DIMSTYLE
  2
STANDARD
  9
$DIMCLRD
 70
     0
  9
$DIMCLRE
 70
     0
  9
$DIMCLRT
 70
     0
  9
$DIMTFAC
 40
1.0
  9
$DIMGAP
 40
0.09
  9
$DIMJUST
 70
     0
  9
$DIMSD1
 70
     0
  9
$DIMSD2
 70
     0
  9
$DIMTOLJ
 70
     1
  9
$DIMTZIN
 70
     0
  9
$DIMALTZ
 70
     0
  9
$DIMALTTZ
 70
     0
  9
$DIMFIT
 70
     3
  9
$DIMUPT
 70
     0
  9
$DIMUNIT
 70
     2
  9
$DIMDEC
 70
     4
  9
$DIMTDEC
 70
     4
  9
$DIMALTU
 70
     2
  9
$DIMALTTD
 70
     2
  9
$DIMTXSTY
  7
STANDARD
  9
$DIMAUNIT
 70
     0
  9
$LUNITS
 70
     2
  9
$LUPREC
 70
     4
  9
$SKETCHINC
 40
0.1
  9
$FILLETRAD
 40
0.5
  9
$AUNITS
 70
     0
  9
$AUPREC
 70
     0
  9
$MENU
  1
.
  9
$ELEVATION
 40
0.0
  9
$PELEVATION
 40
0.0
  9
$THICKNESS
 40
0.0
  9
$LIMCHECK
 70
     0
  9
$CHAMFERA
 40
0.5
  9
$CHAMFERB
 40
0.5
  9
$CHAMFERC
 40
1.0
  9
$CHAMFERD
 40
0.0
  9
$SKPOLY
 70
     0
  9
$TDCREATE
 40
2456672.509956817
  9
$TDUPDATE
 40
2456672.509956829
  9
$TDINDWG
 40
0.0000000116
  9
$TDUSRTIMER
 40
0.0000000116
  9
$USRTIMER
 70
     1
  9
$ANGBASE
 50
0.0
  9
$ANGDIR
 70
     0
  9
$PDMODE
 70
     0
  9
$PDSIZE
 40
0.0
  9
$PLINEWID
 40
0.0
  9
$COORDS
 70
     1
  9
$SPLFRAME
 70
     0
  9
$SPLINETYPE
 70
     6
  9
$SPLINESEGS
 70
     8
  9
$ATTDIA
 70
     0
  9
$ATTREQ
 70
     1
  9
$HANDLING
 70
     1
  9
$HANDSEED
  5
149
  9
$SURFTAB1
 70
     6
  9
$SURFTAB2
 70
     6
  9
$SURFTYPE
 70
     6
  9
$SURFU
 70
     6
  9
$SURFV
 70
     6
  9
$UCSNAME
  2

  9
$UCSORG
 10
0.0
 20
0.0
 30
0.0
  9
$UCSXDIR
 10
1.0
 20
0.0
 30
0.0
  9
$UCSYDIR
 10
0.0
 20
1.0
 30
0.0
  9
$PUCSNAME
  2

  9
$PUCSORG
 10
0.0
 20
0.0
 30
0.0
  9
$PUCSXDIR
 10
1.0
 20
0.0
 30
0.0
  9
$PUCSYDIR
 10
0.0
 20
1.0
 30
0.0
  9
$USERI1
 70
     0
  9
$USERI2
 70
     0
  9
$USERI3
 70
     0
  9
$USERI4
 70
     0
  9
$USERI5
 70
     0
  9
$USERR1
 40
0.0
  9
$USERR2
 40
0.0
  9
$USERR3
 40
0.0
  9
$USERR4
 40
0.0
  9
$USERR5
 40
0.0
  9
$WORLDVIEW
 70
     1
  9
$SHADEDGE
 70
     3
  9
$SHADEDIF
 70
    70
  9
$TILEMODE
 70
     1
  9
$MAXACTVP
 70
    64
  9
$PINSBASE
 10
0.0
 20
0.0
 30
0.0
  9
$PLIMCHECK
 70
     0
  9
$PEXTMIN
 10
-0.5
 20
-0.5
 30
-0.5
  9
$PEXTMAX
 10
5.0
 20
5.0
 30
5.0
  9
$PLIMMIN
 10
-0.5
 20
-0.5
  9
$PLIMMAX
 10
5.0
 20
5.0
  9
$UNITMODE
 70
     0
  9
$VISRETAIN
 70
     1
  9
$PLINEGEN
 70
     0
  9
$PSLTSCALE
 70
     1
  9
$TREEDEPTH
 70
  3020
  9
$PICKSTYLE
 70
     1
  9
$CMLSTYLE
  2
STANDARD
  9
$CMLJUST
 70
     0
  9
$CMLSCALE
 40
1.0
  9
$PROXYGRAPHICS
 70
     1
  9
$MEASUREMENT
 70
     1
  0
ENDSEC
  0
SECTION
  2
CLASSES
  0
CLASS
  1
ACDBDICTIONARYWDFLT
  2
AcDbDictionaryWithDefault
  3
ObjectDBX Classes
 90
        0
280
     0
281
     0
  0
CLASS
  1
VISUALSTYLE
  2
AcDbVisualStyle
  3
ObjectDBX Classes
 90
     4095
280
     0
281
     0
  0
CLASS
  1
MATERIAL
  2
AcDbMaterial
  3
ObjectDBX Classes
 90
     1153
280
     0
281
     0
  0
CLASS
  1
DICTIONARYVAR
  2
AcDbDictionaryVar
  3
ObjectDBX Classes
 90
        0
280
     0
281
     0
  0
CLASS
  1
XRECORD
  2
AcDbXrecord
  3
AutoCAD 2000
 90
        0
280
     0
281
     0
  0
CLASS
  1
LWPOLYLINE
  2
AcDbPolyline
  3
AutoCAD 2000
 90
        0
280
     0
281
     1
  0
CLASS
  1
HATCH
  2
AcDbHatch
  3
AutoCAD 2000
 90
        0
280
     0
281
     1
  0
CLASS
  1
ACDBPLACEHOLDER
  2
AcDbPlaceHolder
  3
ObjectDBX Classes
 90
        0
280
     0
281
     0
  0
CLASS
  1
LAYOUT
  2
AcDbLayout
  3
ObjectDBX Classes
 90
        0
280
     0
281
     0
  0
ENDSEC
  0
SECTION
  2
TABLES
  0
TABLE
  2
VPORT
  5
8
330
0
100
AcDbSymbolTable
 70
    17
  0
VPORT
  5
29
330
8
100
AcDbSymbolTableRecord
100
AcDbViewportTableRecord
  2
DUMMY
 70
     0
 10
0.0
 20
0.0
 11
1.0
 21
1.0
 12
10.429907
 22
4.5
 13
0.0
 23
0.0
 14
0.5
 24
0.5
 15
0.5
 25
0.5
 16
0.0
 26
0.0
 36
1.0
 17
0.0
 27
0.0
 37
0.0
 40
9.0
 41
1.972973
 42
50.0
 43
0.0
 44
0.0
 50
0.0
 51
0.0
 71
     0
 72
   100
 73
     1
 74
     3
 75
     0
 76
     0
 77
     0
 78
     0
  0
VPORT
  5
10E
330
8
100
AcDbSymbolTableRecord
100
AcDbViewportTableRecord
  2
*ACTIVE
 70
     0
 10
0.0
 20
0.0
 11
1.0
 21
1.0
 12
11056.928851
 22
385.357741
 13
0.0
 23
0.0
 14
0.5
 24
0.5
 15
0.5
 25
0.5
 16
0.0
 26
0.0
 36
1.0
 17
0.0
 27
0.0
 37
0.0
 40
254.0
 41
0.069908
 42
50.0
 43
34005.736872
 44
-34005.736872
 50
0.0
 51
0.0
 71
     0
 72
   100
 73
     1
 74
     3
 75
     0
 76
     0
 77
     0
 78
     0
  0
VPORT
  5
10F
330
8
100
AcDbSymbolTableRecord
100
AcDbViewportTableRecord
  2
L1
 70
     0
 10
0.0
 20
0.0
 11
1.0
 21
1.0
 12
11056.928851
 22
385.357741
 13
0.0
 23
0.0
 14
0.5
 24
0.5
 15
0.5
 25
0.5
 16
0.0
 26
0.0
 36
1.0
 17
0.0
 27
0.0
 37
0.0
 40
254.0
 41
0.069908
 42
50.0
 43
34005.736872
 44
-34005.736872
 50
0.0
 51
0.0
 71
     0
 72
   100
 73
     1
 74
     3
 75
     0
 76
     0
 77
     0
 78
     0
  0
VPORT
  5
110
330
8
100
AcDbSymbolTableRecord
100
AcDbViewportTableRecord
  2
L2
 70
     0
 10
0.0
 20
0.0
 11
0.5
 21
1.0
 12
0.0
 22
0.0
 13
0.0
 23
0.0
 14
0.5
 24
0.5
 15
0.5
 25
0.5
 16
0.0
 26
-1.0
 36
0.0
 17
0.0
 27
0.0
 37
0.0
 40
1319.822715
 41
0.013454
 42
50.0
 43
672.020833
 44
-672.020833
 50
0.0
 51
0.0
 71
     0
 72
   100
 73
     1
 74
     3
 75
     0
 76
     0
 77
     0
 78
     0
  0
VPORT
  5
111
330
8
100
AcDbSymbolTableRecord
100
AcDbViewportTableRecord
  2
L2
 70
     0
 10
0.5
 20
0.0
 11
1.0
 21
1.0
 12
0.0
 22
0.0
 13
0.0
 23
0.0
 14
0.5
 24
0.5
 15
0.5
 25
0.5
 16
1.0
 26
0.0
 36
0.0
 17
0.0
 27
0.0
 37
0.0
 40
1319.822715
 41
0.013454
 42
50.0
 43
672.020833
 44
-672.020833
 50
0.0
 51
0.0
 71
     0
 72
   100
 73
     1
 74
     3
 75
     0
 76
     0
 77
     0
 78
     0
  0
VPORT
  5
112
330
8
100
AcDbSymbolTableRecord
100
AcDbViewportTableRecord
  2
L3
 70
     0
 10
0.0
 20
0.5
 11
1.0
 21
1.0
 12
11056.928851
 22
385.357741
 13
0.0
 23
0.0
 14
0.5
 24
0.5
 15
0.5
 25
0.5
 16
0.0
 26
0.0
 36
1.0
 17
0.0
 27
0.0
 37
0.0
 40
254.0
 41
0.069908
 42
50.0
 43
34005.736872
 44
-34005.736872
 50
0.0
 51
0.0
 71
     0
 72
   100
 73
     1
 74
     3
 75
     0
 76
     0
 77
     0
 78
     0
  0
VPORT
  5
113
330
8
100
AcDbSymbolTableRecord
100
AcDbViewportTableRecord
  2
L3
 70
     0
 10
0.0
 20
0.0
 11
1.0
 21
0.5
 12
0.0
 22
0.0
 13
0.0
 23
0.0
 14
0.5
 24
0.5
 15
0.5
 25
0.5
 16
0.0
 26
-1.0
 36
0.0
 17
0.0
 27
0.0
 37
0.0
 40
1319.822715
 41
0.013454
 42
50.0
 43
672.020833
 44
-672.020833
 50
0.0
 51
0.0
 71
     0
 72
   100
 73
     1
 74
     3
 75
     0
 76
     0
 77
     0
 78
     0
  0
VPORT
  5
114
330
8
100
AcDbSymbolTableRecord
100
AcDbViewportTableRecord
  2
L4
 70
     0
 10
0.0
 20
0.5
 11
0.5
 21
1.0
 12
11056.928851
 22
385.357741
 13
0.0
 23
0.0
 14
0.5
 24
0.5
 15
0.5
 25
0.5
 16
0.0
 26
0.0
 36
1.0
 17
0.0
 27
0.0
 37
0.0
 40
254.0
 41
0.069908
 42
50.0
 43
34005.736872
 44
-34005.736872
 50
0.0
 51
0.0
 71
     0
 72
   100
 73
     1
 74
     3
 75
     0
 76
     0
 77
     0
 78
     0
  0
VPORT
  5
115
330
8
100
AcDbSymbolTableRecord
100
AcDbViewportTableRecord
  2
L4
 70
     0
 10
0.0
 20
0.0
 11
0.5
 21
0.5
 12
0.0
 22
0.0
 13
0.0
 23
0.0
 14
0.5
 24
0.5
 15
0.5
 25
0.5
 16
0.0
 26
-1.0
 36
0.0
 17
0.0
 27
0.0
 37
0.0
 40
1319.822715
 41
0.013454
 42
50.0
 43
672.020833
 44
-672.020833
 50
0.0
 51
0.0
 71
     0
 72
   100
 73
     1
 74
     3
 75
     0
 76
     0
 77
     0
 78
     0
  0
VPORT
  5
116
330
8
100
AcDbSymbolTableRecord
100
AcDbViewportTableRecord
  2
L4
 70
     0
 10
0.5
 20
0.0
 11
1.0
 21
0.5
 12
0.0
 22
0.0
 13
0.0
 23
0.0
 14
0.5
 24
0.5
 15
0.5
 25
0.5
 16
1.0
 26
0.0
 36
0.0
 17
0.0
 27
0.0
 37
0.0
 40
1319.822715
 41
0.013454
 42
50.0
 43
672.020833
 44
-672.020833
 50
0.0
 51
0.0
 71
     0
 72
   100
 73
     1
 74
     3
 75
     0
 76
     0
 77
     0
 78
     0
  0
VPORT
  5
117
330
8
100
AcDbSymbolTableRecord
100
AcDbViewportTableRecord
  2
L4
 70
     0
 10
0.5
 20
0.5
 11
1.0
 21
1.0
 12
0.0
 22
0.0
 13
0.0
 23
0.0
 14
0.5
 24
0.5
 15
0.5
 25
0.5
 16
0.5773502691896258
 26
-0.5773502691896258
 36
0.5773502691896258
 17
0.0
 27
0.0
 37
0.0
 40
1285.020866
 41
0.013818
 42
50.0
 43
667.141407
 44
-667.141407
 50
0.0
 51
0.0
 71
     0
 72
   100
 73
     1
 74
     3
 75
     0
 76
     0
 77
     0
 78
     0
  0
VPORT
  5
118
330
8
100
AcDbSymbolTableRecord
100
AcDbViewportTableRecord
  2
L6
 70
     0
 10
0.0
 20
0.5
 11
0.333333
 21
1.0
 12
0.0
 22
0.0
 13
0.0
 23
0.0
 14
0.5
 24
0.5
 15
0.5
 25
0.5
 16
0.7188730927569434
 26
-0.5850486126764431
 36
0.3754192287502549
 17
0.0
 27
0.0
 37
0.0
 40
1357.434192
 41
0.013081
 42
50.0
 43
701.839477
 44
-701.839477
 50
0.0
 51
0.0
 71
     0
 72
   100
 73
     1
 74
     3
 75
     0
 76
     0
 77
     0
 78
     0
  0
VPORT
  5
119
330
8
100
AcDbSymbolTableRecord
100
AcDbViewportTableRecord
  2
L6
 70
     0
 10
0.0
 20
0.0
 11
0.333333
 21
0.5
 12
0.0
 22
0.0
 13
0.0
 23
0.0
 14
0.5
 24
0.5
 15
0.5
 25
0.5
 16
-1.0
 26
0.0
 36
0.0
 17
0.0
 27
0.0
 37
0.0
 40
1319.822715
 41
0.013454
 42
50.0
 43
672.020833
 44
-672.020833
 50
0.0
 51
0.0
 71
     0
 72
   100
 73
     1
 74
     3
 75
     0
 76
     0
 77
     0
 78
     0
  0
VPORT
  5
11A
330
8
100
AcDbSymbolTableRecord
100
AcDbViewportTableRecord
  2
L6
 70
     0
 10
0.333333
 20
0.5
 11
0.666667
 21
1.0
 12
11056.928851
 22
385.357741
 13
0.0
 23
0.0
 14
0.5
 24
0.5
 15
0.5
 25
0.5
 16
0.0
 26
0.0
 36
1.0
 17
0.0
 27
0.0
 37
0.0
 40
254.0
 41
0.069908
 42
50.0
 43
34005.736872
 44
-34005.736872
 50
0.0
 51
0.0
 71
     0
 72
   100
 73
     1
 74
     3
 75
     0
 76
     0
 77
     0
 78
     0
  0
VPORT
  5
11B
330
8
100
AcDbSymbolTableRecord
100
AcDbViewportTableRecord
  2
L6
 70
     0
 10
0.333333
 20
0.0
 11
0.666667
 21
0.5
 12
0.0
 22
0.0
 13
0.0
 23
0.0
 14
0.5
 24
0.5
 15
0.5
 25
0.5
 16
0.0
 26
-1.0
 36
0.0
 17
0.0
 27
0.0
 37
0.0
 40
1319.822715
 41
0.013454
 42
50.0
 43
672.020833
 44
-672.020833
 50
0.0
 51
0.0
 71
     0
 72
   100
 73
     1
 74
     3
 75
     0
 76
     0
 77
     0
 78
     0
  0
VPORT
  5
11C
330
8
100
AcDbSymbolTableRecord
100
AcDbViewportTableRecord
  2
L6
 70
     0
 10
0.666667
 20
0.5
 11
1.0
 21
1.0
 12
0.0
 22
0.0
 13
0.0
 23
0.0
 14
0.5
 24
0.5
 15
0.5
 25
0.5
 16
0.5773502691896258
 26
-0.5773502691896258
 36
0.5773502691896258
 17
0.0
 27
0.0
 37
0.0
 40
1285.020866
 41
0.013818
 42
50.0
 43
667.141407
 44
-667.141407
 50
0.0
 51
0.0
 71
     0
 72
   100
 73
     1
 74
     3
 75
     0
 76
     0
 77
     0
 78
     0
  0
VPORT
  5
11D
330
8
100
AcDbSymbolTableRecord
100
AcDbViewportTableRecord
  2
L6
 70
     0
 10
0.666667
 20
0.0
 11
1.0
 21
0.5
 12
0.0
 22
0.0
 13
0.0
 23
0.0
 14
0.5
 24
0.5
 15
0.5
 25
0.5
 16
1.0
 26
0.0
 36
0.0
 17
0.0
 27
0.0
 37
0.0
 40
1319.822715
 41
0.013454
 42
50.0
 43
672.020833
 44
-672.020833
 50
0.0
 51
0.0
 71
     0
 72
   100
 73
     1
 74
     3
 75
     0
 76
     0
 77
     0
 78
     0
  0
ENDTAB
  0
TABLE
  2
LTYPE
  5
5
330
0
100
AcDbSymbolTable
 70
     7
  0
LTYPE
  5
14
330
5
100
AcDbSymbolTableRecord
100
AcDbLinetypeTableRecord
  2
BYBLOCK
 70
     0
  3

 72
    65
 73
     0
 40
0.0
  0
LTYPE
  5
15
330
5
100
AcDbSymbolTableRecord
100
AcDbLinetypeTableRecord
  2
BYLAYER
 70
     0
  3

 72
    65
 73
     0
 40
0.0
  0
LTYPE
  5
16
330
5
100
AcDbSymbolTableRecord
100
AcDbLinetypeTableRecord
  2
CONTINUOUS
 70
     0
  3
Solid line
 72
    65
 73
     0
 40
0.0
  0
LTYPE
  5
3F
330
5
100
AcDbSymbolTableRecord
100
AcDbLinetypeTableRecord
  2
DASHED
 70
     0
  3
__ __ __ __ __ __ __ __ __
 72
    65
 73
     2
 40
25.72
 49
12.86
 74
     4
 75
     0
340
0
 46
0.0
 50
0.0
 44
0.0
 45
0.0
 49
-12.86
 74
     4
 75
     0
340
0
 46
0.0
 50
0.0
 44
0.0
 45
0.0
  0
LTYPE
  5
40
330
5
100
AcDbSymbolTableRecord
100
AcDbLinetypeTableRecord
  2
HIDDEN
 70
     0
  3
_ _ _ _ _ _ _ _ _ _ _ _ _ _ _
 72
    65
 73
     2
 40
0.5
 49
0.25
 74
     4
 75
     0
340
0
 46
0.0
 50
0.0
 44
0.0
 45
0.0
 49
-0.25
 74
     4
 75
     0
340
0
 46
0.0
 50
0.0
 44
0.0
 45
0.0
  0
LTYPE
  5
41
330
5
100
AcDbSymbolTableRecord
100
AcDbLinetypeTableRecord
  2
PHANTOM
 70
     0
  3
____ _ _ ____ _ _ _____ _ _ ____
 72
    65
 73
     6
 40
50.5
 49
18.0
 74
     4
 75
     0
340
0
 46
0.0
 50
0.0
 44
0.0
 45
0.0
 49
-6.5
 74
     4
 75
     0
340
0
 46
0.0
 50
0.0
 44
0.0
 45
0.0
 49
6.5
 74
     4
 75
     0
340
0
 46
0.0
 50
0.0
 44
0.0
 45
0.0
 49
-6.5
 74
     4
 75
     0
340
0
 46
0.0
 50
0.0
 44
0.0
 45
0.0
 49
6.5
 74
     4
 75
     0
340
0
 46
0.0
 50
0.0
 44
0.0
 45
0.0
 49
-6.5
 74
     4
 75
     0
340
0
 46
0.0
 50
0.0
 44
0.0
 45
0.0
  0
LTYPE
  5
42
330
5
100
AcDbSymbolTableRecord
100
AcDbLinetypeTableRecord
  2
CENTER
 70
     0
  3
____ _ ____ _ ____ _ ____
 72
    65
 73
     4
 40
47.4
 49
22.0
 74
     4
 75
     0
340
0
 46
0.0
 50
0.0
 44
0.0
 45
0.0
 49
-8.5
 74
     4
 75
     0
340
0
 46
0.0
 50
0.0
 44
0.0
 45
0.0
 49
8.5
 74
     4
 75
     0
340
0
 46
0.0
 50
0.0
 44
0.0
 45
0.0
 49
-8.5
 74
     4
 75
     0
340
0
 46
0.0
 50
0.0
 44
0.0
 45
0.0
  0
LTYPE
  5
43
330
5
100
AcDbSymbolTableRecord
100
AcDbLinetypeTableRecord
  2
DOT
 70
     0
  3
.........................
 72
    65
 73
     2
 40
10.0
 49
0.0
 74
     4
 75
     0
340
0
 46
0.0
 50
0.0
 44
0.0
 45
0.0
 49
-10.0
 74
     4
 75
     0
340
0
 46
0.0
 50
0.0
 44
0.0
 45
0.0
  0
LTYPE
  5
44
330
5
100
AcDbSymbolTableRecord
100
AcDbLinetypeTableRecord
  2
DASHDOT
 70
     0
  3
_._._._._._._._._._._._._._._._.
 72
    65
 73
     4
 40
70.0
 49
31.0
 74
     4
 75
     0
340
0
 46
0.0
 50
0.0
 44
0.0
 45
0.0
 49
-13.0
 74
     4
 75
     0
340
0
 46
0.0
 50
0.0
 44
0.0
 45
0.0
 49
13.0
 74
     4
 75
     0
340
0
 46
0.0
 50
0.0
 44
0.0
 45
0.0
 49
-13.0
 74
     4
 75
     0
340
0
 46
0.0
 50
0.0
 44
0.0
 45
0.0
  0
ENDTAB
  0
TABLE
  2
LAYER
  5
2
330
0
100
AcDbSymbolTable
 70
     2
  0
LAYER
  5
10
330
2
100
AcDbSymbolTableRecord
100
AcDbLayerTableRecord
  2
0
 70
     0
 62
     7
  6
CONTINUOUS
  0
LAYER
  5
46
330
2
100
AcDbSymbolTableRecord
100
AcDbLayerTableRecord
  2
1
 70
     0
 62
     7
  6
CONTINUOUS
  0
ENDTAB
  0
TABLE
  2
STYLE
  5
3
330
0
100
AcDbSymbolTable
 70
     3
  0
STYLE
  5
11
330
3
100
AcDbSymbolTableRecord
100
AcDbTextStyleTableRecord
  2
STANDARD
 70
     0
 40
0.0
 41
1.0
 50
0.0
 71
     0
 42
0.2
  3
txt
  4

  0
STYLE
  5
103
330
3
100
AcDbSymbolTableRecord
100
AcDbTextStyleTableRecord
  2
ISO-1
 70
     0
 40
0.0
 41
1.0
 50
0.0
 71
     0
 42
0.2
  3
isocp.shx
  4

  0
STYLE
  5
104
330
3
100
AcDbSymbolTableRecord
100
AcDbTextStyleTableRecord
  2
DWGDIRECTTEXTSTYLE
 70
     0
 40
0.0
 41
1.0
 50
0.0
 71
     0
 42
0.2
  3
ISOCP
  4
bigfont
  0
ENDTAB
  0
TABLE
  2
VIEW
  5
6
330
0
100
AcDbSymbolTable
 70
     8
  0
VIEW
  5
106
330
6
100
AcDbSymbolTableRecord
100
AcDbViewTableRecord
  2
TOP
 70
     0
 40
254.0
 10
11056.928851
 20
385.357741
 41
254.0
 11
0.0
 21
0.0
 31
1.0
 12
0.0
 22
0.0
 32
0.0
 42
50.0
 43
34005.736872
 44
-34005.736872
 50
0.0
 71
     0
  0
VIEW
  5
107
330
6
100
AcDbSymbolTableRecord
100
AcDbViewTableRecord
  2
FRONT
 70
     0
 40
1319.822715
 10
0.0
 20
0.0
 41
254.0
 11
0.0
 21
-1.0
 31
0.0
 12
0.0
 22
0.0
 32
0.0
 42
50.0
 43
672.020833
 44
-672.020833
 50
0.0
 71
     0
  0
VIEW
  5
108
330
6
100
AcDbSymbolTableRecord
100
AcDbViewTableRecord
  2
RIGHT
 70
     0
 40
1319.822715
 10
0.0
 20
0.0
 41
254.0
 11
1.0
 21
0.0
 31
0.0
 12
0.0
 22
0.0
 32
0.0
 42
50.0
 43
672.020833
 44
-672.020833
 50
0.0
 71
     0
  0
VIEW
  5
109
330
6
100
AcDbSymbolTableRecord
100
AcDbViewTableRecord
  2
BACK
 70
     0
 40
1319.822715
 10
0.0
 20
0.0
 41
254.0
 11
0.0
 21
1.0
 31
0.0
 12
0.0
 22
0.0
 32
0.0
 42
50.0
 43
672.020833
 44
-672.020833
 50
0.0
 71
     0
  0
VIEW
  5
10A
330
6
100
AcDbSymbolTableRecord
100
AcDbViewTableRecord
  2
BOTTOM
 70
     0
 40
254.0
 10
0.0
 20
0.0
 41
254.0
 11
0.0
 21
0.0
 31
-1.0
 12
0.0
 22
0.0
 32
0.0
 42
50.0
 43
659.911358
 44
-659.911358
 50
180.0
 71
     0
  0
VIEW
  5
10B
330
6
100
AcDbSymbolTableRecord
100
AcDbViewTableRecord
  2
LEFT
 70
     0
 40
1319.822715
 10
0.0
 20
0.0
 41
254.0
 11
-1.0
 21
0.0
 31
0.0
 12
0.0
 22
0.0
 32
0.0
 42
50.0
 43
672.020833
 44
-672.020833
 50
0.0
 71
     0
  0
VIEW
  5
10C
330
6
100
AcDbSymbolTableRecord
100
AcDbViewTableRecord
  2
TFR-ISO
 70
     0
 40
1285.020866
 10
0.0
 20
0.0
 41
359.210245
 11
0.5773502691896258
 21
-0.5773502691896258
 31
0.5773502691896258
 12
0.0
 22
0.0
 32
0.0
 42
50.0
 43
667.141407
 44
-667.141407
 50
0.0
 71
     0
  0
VIEW
  5
10D
330
6
100
AcDbSymbolTableRecord
100
AcDbViewTableRecord
  2
TFR-TRI
 70
     0
 40
1357.434192
 10
0.0
 20
0.0
 41
357.33321
 11
0.7188730927569434
 21
-0.5850486126764431
 31
0.3754192287502549
 12
0.0
 22
0.0
 32
0.0
 42
50.0
 43
701.839477
 44
-701.839477
 50
0.0
 71
     0
  0
ENDTAB
  0
TABLE
  2
UCS
  5
7
330
0
100
AcDbSymbolTable
 70
     0
  0
ENDTAB
  0
TABLE
  2
APPID
  5
9
330
0
100
AcDbSymbolTable
 70
     1
  0
APPID
  5
12
330
9
100
AcDbSymbolTableRecord
100
AcDbRegAppTableRecord
  2
ACAD
 70
     0
  0
ENDTAB
  0
TABLE
  2
DIMSTYLE
  5
A
330
0
100
AcDbSymbolTable
 70
     1
  0
DIMSTYLE
105
27
330
A
100
AcDbSymbolTableRecord
100
AcDbDimStyleTableRecord
  2
STANDARD
 70
     0
  3

  4

  5

  6

  7

 40
1.0
 41
0.18
 42
0.0625
 43
0.38
 44
0.18
 45
0.0
 46
0.0
 47
0.0
 48
0.0
140
0.18
141
0.09
142
0.0
143
25.4
144
1.0
145
0.0
146
1.0
147
0.09
 71
     0
 72
     0
 73
     1
 74
     1
 75
     0
 76
     0
 77
     0
 78
     0
170
     0
171
     2
172
     0
173
     0
174
     0
175
     0
176
     0
177
     0
178
     0
270
     2
271
     4
272
     4
273
     2
274
     2
340
11
275
     0
280
     0
281
     0
282
     0
283
     1
284
     0
285
     0
286
     0
287
     3
288
     0
  0
ENDTAB
  0
TABLE
  2
BLOCK_RECORD
  5
1
330
0
100
AcDbSymbolTable
 70
     1
  0
BLOCK_RECORD
  5
1F
330
1
100
AcDbSymbolTableRecord
100
AcDbBlockTableRecord
  2
*MODEL_SPACE
  0
BLOCK_RECORD
  5
1B
330
1
100
AcDbSymbolTableRecord
100
AcDbBlockTableRecord
  2
*PAPER_SPACE
  0
ENDTAB
  0
ENDSEC
  0
SECTION
  2
BLOCKS
  0
BLOCK
  5
20
330
1F
100
AcDbEntity
  8
0
100
AcDbBlockBegin
  2
*MODEL_SPACE
 70
     0
 10
0.0
 20
0.0
 30
0.0
  3
*MODEL_SPACE
  1

  0
ENDBLK
  5
21
330
1F
100
AcDbEntity
  8
0
100
AcDbBlockEnd
  0
BLOCK
  5
1C
330
1B
100
AcDbEntity
 67
     1
  8
0
100
AcDbBlockBegin
  2
*PAPER_SPACE
 70
     0
 10
0.0
 20
0.0
 30
0.0
  3
*PAPER_SPACE
  1

  0
ENDBLK
  5
1D
330
1B
100
AcDbEntity
 67
     1
  8
0
100
AcDbBlockEnd
  0
ENDSEC
  0
SECTION
  2
ENTITIES
  0
LINE
  5
45
330
1F
100
AcDbEntity
  8
1
  6
CONTINUOUS
 62
   155
100
AcDbLine
 10
406.509416
 20
387.03468
 30
0.0
 11
406.509416
 21
388.03468
 31
0.0
  0
LINE
  5
47
330
1F
100
AcDbEntity
  8
1
  6
CONTINUOUS
 62
   155
100
AcDbLine
 10
406.509416
 20
347.09958
 30
0.0
 11
406.509416
 21
379.41006
 31
0.0
  0
LINE
  5
48
330
1F
100
AcDbEntity
  8
1
  6
CONTINUOUS
 62
   155
100
AcDbLine
 10
10406.509416
 20
347.09958
 30
0.0
 11
406.509416
 21
347.09958
 31
0.0
  0
LINE
  5
49
330
1F
100
AcDbEntity
  8
1
  6
CONTINUOUS
 62
   155
100
AcDbLine
 10
406.509416
 20
342.03468
 30
0.0
 11
10406.509416
 21
342.03468
 31
0.0
  0
LINE
  5
4A
330
1F
100
AcDbEntity
  8
1
  6
CONTINUOUS
 62
   155
100
AcDbLine
 10
10406.509416
 20
344.33468
 30
0.0
 11
10406.509416
 21
346.073412
 31
0.0
  0
LINE
  5
4B
330
1F
100
AcDbEntity
  8
1
  6
CONTINUOUS
 62
   155
100
AcDbLine
 10
406.509416
 20
344.33468
 30
0.0
 11
406.509416
 21
346.073412
 31
0.0
  0
LINE
  5
4C
330
1F
100
AcDbEntity
  8
1
  6
CONTINUOUS
 62
   155
100
AcDbLine
 10
10406.509416
 20
347.09958
 30
0.0
 11
10406.509416
 21
379.41006
 31
0.0
  0
LINE
  5
4D
330
1F
100
AcDbEntity
  8
1
  6
CONTINUOUS
 62
   155
100
AcDbLine
 10
10406.509416
 20
346.073412
 30
0.0
 11
406.509416
 21
346.073412
 31
0.0
  0
LINE
  5
4E
330
1F
100
AcDbEntity
  8
1
  6
CONTINUOUS
 62
   155
100
AcDbLine
 10
10406.509416
 20
346.59958
 30
0.0
 11
406.509416
 21
346.59958
 31
0.0
  0
LINE
  5
4F
330
1F
100
AcDbEntity
  8
1
  6
CONTINUOUS
 62
   155
100
AcDbLine
 10
10406.509416
 20
344.14089
 30
0.0
 11
10406.509416
 21
344.33468
 31
0.0
  0
LINE
  5
50
330
1F
100
AcDbEntity
  8
1
  6
CONTINUOUS
 62
   155
100
AcDbLine
 10
406.509416
 20
344.14089
 30
0.0
 11
406.509416
 21
344.33468
 31
0.0
  0
LINE
  5
51
330
1F
100
AcDbEntity
  8
1
  6
CONTINUOUS
 62
   155
100
AcDbLine
 10
10406.509416
 20
344.33468
 30
0.0
 11
406.509416
 21
344.33468
 31
0.0
  0
LINE
  5
52
330
1F
100
AcDbEntity
  8
1
  6
CONTINUOUS
 62
   155
100
AcDbLine
 10
10406.509416
 20
342.327573
 30
0.0
 11
10406.509416
 21
344.14089
 31
0.0
  0
LINE
  5
53
330
1F
100
AcDbEntity
  8
1
  6
CONTINUOUS
 62
   155
100
AcDbLine
 10
406.509416
 20
342.327573
 30
0.0
 11
406.509416
 21
344.14089
 31
0.0
  0
LINE
  5
54
330
1F
100
AcDbEntity
  8
1
  6
CONTINUOUS
 62
   155
100
AcDbLine
 10
10406.509416
 20
342.327573
 30
0.0
 11
406.509416
 21
342.327573
 31
0.0
  0
LINE
  5
55
330
1F
100
AcDbEntity
  8
1
  6
CONTINUOUS
 62
   155
100
AcDbLine
 10
10406.509416
 20
344.14089
 30
0.0
 11
406.509416
 21
344.14089
 31
0.0
  0
LINE
  5
56
330
1F
100
AcDbEntity
  8
1
  6
CONTINUOUS
 62
   155
100
AcDbLine
 10
10406.509416
 20
379.41006
 30
0.0
 11
406.509416
 21
379.41006
 31
0.0
  0
LINE
  5
57
330
1F
100
AcDbEntity
  8
1
  6
CONTINUOUS
 62
   155
100
AcDbLine
 10
10406.509416
 20
391.83468
 30
0.0
 11
406.509416
 21
391.83468
 31
0.0
  0
LINE
  5
58
330
1F
100
AcDbEntity
  8
1
  6
CONTINUOUS
 62
   155
100
AcDbLine
 10
10406.509416
 20
388.03468
 30
0.0
 11
10406.509416
 21
389.53468
 31
0.0
  0
LINE
  5
59
330
1F
100
AcDbEntity
  8
1
  6
CONTINUOUS
 62
   155
100
AcDbLine
 10
406.509416
 20
388.03468
 30
0.0
 11
406.509416
 21
389.53468
 31
0.0
  0
LINE
  5
5A
330
1F
100
AcDbEntity
  8
1
  6
CONTINUOUS
 62
   155
100
AcDbLine
 10
10406.509416
 20
389.728469
 30
0.0
 11
10406.509416
 21
391.541786
 31
0.0
  0
LINE
  5
5B
330
1F
100
AcDbEntity
  8
1
  6
CONTINUOUS
 62
   155
100
AcDbLine
 10
406.509416
 20
389.53468
 30
0.0
 11
406.509416
 21
389.728469
 31
0.0
  0
LINE
  5
5C
330
1F
100
AcDbEntity
  8
1
  6
CONTINUOUS
 62
   155
100
AcDbLine
 10
10406.509416
 20
389.53468
 30
0.0
 11
406.509416
 21
389.53468
 31
0.0
  0
LINE
  5
5D
330
1F
100
AcDbEntity
  8
1
  6
CONTINUOUS
 62
   155
100
AcDbLine
 10
10406.509416
 20
389.728469
 30
0.0
 11
406.509416
 21
389.728469
 31
0.0
  0
LINE
  5
5E
330
1F
100
AcDbEntity
  8
1
  6
CONTINUOUS
 62
   155
100
AcDbLine
 10
406.509416
 20
389.728469
 30
0.0
 11
406.509416
 21
391.541786
 31
0.0
  0
LINE
  5
5F
330
1F
100
AcDbEntity
  8
1
  6
CONTINUOUS
 62
   155
100
AcDbLine
 10
10406.509416
 20
391.541786
 30
0.0
 11
406.509416
 21
391.541786
 31
0.0
  0
LINE
  5
60
330
1F
100
AcDbEntity
  8
1
  6
CONTINUOUS
 62
   155
100
AcDbLine
 10
10406.509416
 20
387.03468
 30
0.0
 11
10406.509416
 21
388.03468
 31
0.0
  0
LINE
  5
61
330
1F
100
AcDbEntity
  8
1
  6
CONTINUOUS
 62
   155
100
AcDbLine
 10
10406.509416
 20
389.53468
 30
0.0
 11
10406.509416
 21
389.728469
 31
0.0
  0
LINE
  5
62
330
1F
100
AcDbEntity
  8
1
  6
CONTINUOUS
 62
   155
100
AcDbLine
 10
10406.509416
 20
388.03468
 30
0.0
 11
406.509416
 21
388.03468
 31
0.0
  0
LINE
  5
63
330
1F
100
AcDbEntity
  8
1
  6
CONTINUOUS
 62
   155
100
AcDbLine
 10
10406.509416
 20
387.03468
 30
0.0
 11
406.509416
 21
387.03468
 31
0.0
  0
LINE
  5
64
330
1F
100
AcDbEntity
  8
1
  6
CONTINUOUS
 62
   155
100
AcDbLine
 10
406.509416
 20
391.83468
 30
0.0
 11
406.509416
 21
391.541786
 31
0.0
  0
LINE
  5
65
330
1F
100
AcDbEntity
  8
1
  6
CONTINUOUS
 62
   155
100
AcDbLine
 10
10406.509416
 20
346.59958
 30
0.0
 11
10406.509416
 21
347.09958
 31
0.0
  0
LINE
  5
66
330
1F
100
AcDbEntity
  8
1
  6
CONTINUOUS
 62
   155
100
AcDbLine
 10
406.509416
 20
346.59958
 30
0.0
 11
406.509416
 21
347.09958
 31
0.0
  0
LINE
  5
67
330
1F
100
AcDbEntity
  8
1
  6
CONTINUOUS
 62
   155
100
AcDbLine
 10
10406.509416
 20
342.03468
 30
0.0
 11
10406.509416
 21
342.327573
 31
0.0
  0
LINE
  5
68
330
1F
100
AcDbEntity
  8
1
  6
CONTINUOUS
 62
   155
100
AcDbLine
 10
406.509416
 20
342.03468
 30
0.0
 11
406.509416
 21
342.327573
 31
0.0
  0
LINE
  5
69
330
1F
100
AcDbEntity
  8
1
  6
CONTINUOUS
 62
   155
100
AcDbLine
 10
10406.509416
 20
391.83468
 30
0.0
 11
10406.509416
 21
391.541786
 31
0.0
  0
LINE
  5
6A
330
1F
100
AcDbEntity
  8
1
  6
CONTINUOUS
 62
   155
100
AcDbLine
 10
10406.509416
 20
346.073412
 30
0.0
 11
10406.509416
 21
346.59958
 31
0.0
  0
LINE
  5
6B
330
1F
100
AcDbEntity
  8
1
  6
CONTINUOUS
 62
   155
100
AcDbLine
 10
406.509416
 20
346.59958
 30
0.0
 11
406.509416
 21
346.073412
 31
0.0
  0
LINE
  5
6C
330
1F
100
AcDbEntity
  8
1
  6
CONTINUOUS
 62
   155
100
AcDbLine
 10
10406.509416
 20
379.41006
 30
0.0
 11
10406.509416
 21
387.03468
 31
0.0
  0
LINE
  5
6D
330
1F
100
AcDbEntity
  8
1
  6
CONTINUOUS
 62
   155
100
AcDbLine
 10
406.509416
 20
387.03468
 30
0.0
 11
406.509416
 21
379.41006
 31
0.0
  0
LINE
  5
6E
330
1F
100
AcDbEntity
  8
1
  6
CONTINUOUS
 62
   155
100
AcDbLine
 10
11064.793368
 20
343.381126
 30
0.0
 11
11065.189814
 21
343.777573
 31
0.0
  0
LINE
  5
6F
330
1F
100
AcDbEntity
  8
1
  6
CONTINUOUS
 62
   155
100
AcDbLine
 10
11065.189814
 20
343.777573
 30
0.0
 11
11065.189814
 21
345.63468
 31
0.0
  0
LINE
  5
70
330
1F
100
AcDbEntity
  8
1
  6
CONTINUOUS
 62
   155
100
AcDbLine
 10
11065.189814
 20
345.63468
 30
0.0
 11
11063.689814
 21
345.63468
 31
0.0
  0
LINE
  5
71
330
1F
100
AcDbEntity
  8
1
  6
CONTINUOUS
 62
   155
100
AcDbLine
 10
11063.689814
 20
345.63468
 30
0.0
 11
11063.689814
 21
343.777573
 31
0.0
  0
LINE
  5
72
330
1F
100
AcDbEntity
  8
1
  6
CONTINUOUS
 62
   155
100
AcDbLine
 10
11063.689814
 20
343.777573
 30
0.0
 11
11064.086261
 21
343.381126
 31
0.0
  0
LINE
  5
73
330
1F
100
AcDbEntity
  8
1
  6
CONTINUOUS
 62
   155
100
AcDbLine
 10
11097.456564
 20
390.488233
 30
0.0
 11
11097.853011
 21
390.091786
 31
0.0
  0
LINE
  5
74
330
1F
100
AcDbEntity
  8
1
  6
CONTINUOUS
 62
   155
100
AcDbLine
 10
11096.353011
 20
390.091786
 30
0.0
 11
11096.749458
 21
390.488233
 31
0.0
  0
LINE
  5
75
330
1F
100
AcDbEntity
  8
1
  6
CONTINUOUS
 62
   155
100
AcDbLine
 10
11096.353011
 20
388.23468
 30
0.0
 11
11096.353011
 21
390.091786
 31
0.0
  0
LINE
  5
76
330
1F
100
AcDbEntity
  8
1
  6
CONTINUOUS
 62
   155
100
AcDbLine
 10
11097.853011
 20
388.23468
 30
0.0
 11
11096.353011
 21
388.23468
 31
0.0
  0
LINE
  5
77
330
1F
100
AcDbEntity
  8
1
  6
CONTINUOUS
 62
   155
100
AcDbLine
 10
11097.853011
 20
390.091786
 30
0.0
 11
11097.853011
 21
388.23468
 31
0.0
  0
LINE
  5
78
330
1F
100
AcDbEntity
  8
1
  6
CONTINUOUS
 62
   155
100
AcDbLine
 10
11061.91939
 20
344.14089
 30
0.0
 11
11063.732708
 21
342.327573
 31
0.0
  0
LINE
  5
79
330
1F
100
AcDbEntity
  8
1
  6
CONTINUOUS
 62
   155
100
AcDbLine
 10
11063.018426
 20
344.33468
 30
0.0
 11
11061.91939
 21
344.14089
 31
0.0
  0
LINE
  5
7A
330
1F
100
AcDbEntity
  8
1
  6
CONTINUOUS
 62
   155
100
AcDbLine
 10
11062.939814
 20
345.83468
 30
0.0
 11
11063.018426
 21
344.33468
 31
0.0
  0
LINE
  5
7B
330
1F
100
AcDbEntity
  8
1
  6
CONTINUOUS
 62
   155
100
AcDbLine
 10
11062.603011
 20
379.41006
 30
0.0
 11
11062.603011
 21
346.591893
 31
0.0
  0
LINE
  5
7C
330
1F
100
AcDbEntity
  8
1
  6
CONTINUOUS
 62
   155
100
AcDbLine
 10
11095.603011
 20
388.03468
 30
0.0
 11
11071.227631
 21
388.03468
 31
0.0
  0
LINE
  5
7D
330
1F
100
AcDbEntity
  8
1
  6
CONTINUOUS
 62
   155
100
AcDbLine
 10
11095.681623
 20
389.53468
 30
0.0
 11
11095.603011
 21
388.03468
 31
0.0
  0
LINE
  5
7E
330
1F
100
AcDbEntity
  8
1
  6
CONTINUOUS
 62
   155
100
AcDbLine
 10
11094.582587
 20
389.728469
 30
0.0
 11
11095.681623
 21
389.53468
 31
0.0
  0
LINE
  5
7F
330
1F
100
AcDbEntity
  8
1
  6
CONTINUOUS
 62
   155
100
AcDbLine
 10
11096.395904
 20
391.541786
 30
0.0
 11
11094.582587
 21
389.728469
 31
0.0
  0
LINE
  5
80
330
1F
100
AcDbEntity
  8
1
  6
CONTINUOUS
 62
   155
100
AcDbLine
 10
11099.623435
 20
389.728469
 30
0.0
 11
11097.810118
 21
391.541786
 31
0.0
  0
LINE
  5
81
330
1F
100
AcDbEntity
  8
1
  6
CONTINUOUS
 62
   155
100
AcDbLine
 10
11098.524399
 20
389.53468
 30
0.0
 11
11099.623435
 21
389.728469
 31
0.0
  0
LINE
  5
82
330
1F
100
AcDbEntity
  8
1
  6
CONTINUOUS
 62
   155
100
AcDbLine
 10
11098.603011
 20
388.03468
 30
0.0
 11
11098.524399
 21
389.53468
 31
0.0
  0
LINE
  5
83
330
1F
100
AcDbEntity
  8
1
  6
CONTINUOUS
 62
   155
100
AcDbLine
 10
11063.603011
 20
347.09958
 30
0.0
 11
11063.603011
 21
379.41006
 31
0.0
  0
LINE
  5
84
330
1F
100
AcDbEntity
  8
1
  6
CONTINUOUS
 62
   155
100
AcDbLine
 10
11065.453011
 20
346.59958
 30
0.0
 11
11064.103011
 21
346.59958
 31
0.0
  0
LINE
  5
85
330
1F
100
AcDbEntity
  8
1
  6
CONTINUOUS
 62
   155
100
AcDbLine
 10
11065.861203
 20
344.33468
 30
0.0
 11
11065.952326
 21
346.073412
 31
0.0
  0
LINE
  5
86
330
1F
100
AcDbEntity
  8
1
  6
CONTINUOUS
 62
   155
100
AcDbLine
 10
11066.960238
 20
344.14089
 30
0.0
 11
11065.861203
 21
344.33468
 31
0.0
  0
LINE
  5
87
330
1F
100
AcDbEntity
  8
1
  6
CONTINUOUS
 62
   155
100
AcDbLine
 10
11065.146921
 20
342.327573
 30
0.0
 11
11066.960238
 21
344.14089
 31
0.0
  0
LINE
  5
88
330
1F
100
AcDbEntity
  8
1
  6
CONTINUOUS
 62
   155
100
AcDbLine
 10
11109.103011
 20
388.03468
 30
0.0
 11
11098.603011
 21
388.03468
 31
0.0
  0
LINE
  5
89
330
1F
100
AcDbEntity
  8
1
  6
CONTINUOUS
 62
   155
100
AcDbLine
 10
11109.103011
 20
387.03468
 30
0.0
 11
11109.103011
 21
388.03468
 31
0.0
  0
LINE
  5
8A
330
1F
100
AcDbEntity
  8
1
  6
CONTINUOUS
 62
   155
100
AcDbLine
 10
11071.227631
 20
387.03468
 30
0.0
 11
11109.103011
 21
387.03468
 31
0.0
  0
LINE
  5
8B
330
1F
100
AcDbEntity
  8
1
  6
CONTINUOUS
 62
   155
100
AcDbLine
 10
21844.653958
 20
344.33468
 30
0.0
 11
21844.653958
 21
344.14089
 31
0.0
  0
LINE
  5
8C
330
1F
100
AcDbEntity
  8
1
  6
CONTINUOUS
 62
   155
100
AcDbLine
 10
11844.653958
 20
344.14089
 30
0.0
 11
21844.653958
 21
344.14089
 31
0.0
  0
LINE
  5
8D
330
1F
100
AcDbEntity
  8
1
  6
CONTINUOUS
 62
   155
100
AcDbLine
 10
21844.653958
 20
391.83468
 30
0.0
 11
11844.653958
 21
391.83468
 31
0.0
  0
LINE
  5
8E
330
1F
100
AcDbEntity
  8
1
  6
CONTINUOUS
 62
   155
100
AcDbLine
 10
21844.653958
 20
389.53468
 30
0.0
 11
21844.653958
 21
388.03468
 31
0.0
  0
LINE
  5
8F
330
1F
100
AcDbEntity
  8
1
  6
CONTINUOUS
 62
   155
100
AcDbLine
 10
11844.653958
 20
389.53468
 30
0.0
 11
11844.653958
 21
388.03468
 31
0.0
  0
LINE
  5
90
330
1F
100
AcDbEntity
  8
1
  6
CONTINUOUS
 62
   155
100
AcDbLine
 10
21844.653958
 20
389.728469
 30
0.0
 11
21844.653958
 21
389.53468
 31
0.0
  0
LINE
  5
91
330
1F
100
AcDbEntity
  8
1
  6
CONTINUOUS
 62
   155
100
AcDbLine
 10
11844.653958
 20
391.541786
 30
0.0
 11
11844.653958
 21
389.728469
 31
0.0
  0
LINE
  5
92
330
1F
100
AcDbEntity
  8
1
  6
CONTINUOUS
 62
   155
100
AcDbLine
 10
11844.653958
 20
391.541786
 30
0.0
 11
21844.653958
 21
391.541786
 31
0.0
  0
LINE
  5
93
330
1F
100
AcDbEntity
  8
1
  6
CONTINUOUS
 62
   155
100
AcDbLine
 10
11844.653958
 20
389.728469
 30
0.0
 11
21844.653958
 21
389.728469
 31
0.0
  0
LINE
  5
94
330
1F
100
AcDbEntity
  8
1
  6
CONTINUOUS
 62
   155
100
AcDbLine
 10
11844.653958
 20
389.728469
 30
0.0
 11
11844.653958
 21
389.53468
 31
0.0
  0
LINE
  5
95
330
1F
100
AcDbEntity
  8
1
  6
CONTINUOUS
 62
   155
100
AcDbLine
 10
11844.653958
 20
389.53468
 30
0.0
 11
21844.653958
 21
389.53468
 31
0.0
  0
LINE
  5
96
330
1F
100
AcDbEntity
  8
1
  6
CONTINUOUS
 62
   155
100
AcDbLine
 10
21844.653958
 20
391.541786
 30
0.0
 11
21844.653958
 21
389.728469
 31
0.0
  0
LINE
  5
97
330
1F
100
AcDbEntity
  8
1
  6
CONTINUOUS
 62
   155
100
AcDbLine
 10
11844.653958
 20
342.03468
 30
0.0
 11
21844.653958
 21
342.03468
 31
0.0
  0
LINE
  5
98
330
1F
100
AcDbEntity
  8
1
  6
CONTINUOUS
 62
   155
100
AcDbLine
 10
21844.653958
 20
345.83468
 30
0.0
 11
21844.653958
 21
344.33468
 31
0.0
  0
LINE
  5
99
330
1F
100
AcDbEntity
  8
1
  6
CONTINUOUS
 62
   155
100
AcDbLine
 10
11844.653958
 20
345.83468
 30
0.0
 11
11844.653958
 21
344.33468
 31
0.0
  0
LINE
  5
9A
330
1F
100
AcDbEntity
  8
1
  6
CONTINUOUS
 62
   155
100
AcDbLine
 10
21844.653958
 20
379.41006
 30
0.0
 11
21844.653958
 21
346.591893
 31
0.0
  0
LINE
  5
9B
330
1F
100
AcDbEntity
  8
1
  6
CONTINUOUS
 62
   155
100
AcDbLine
 10
11844.653958
 20
388.03468
 30
0.0
 11
21844.653958
 21
388.03468
 31
0.0
  0
LINE
  5
9C
330
1F
100
AcDbEntity
  8
1
  6
CONTINUOUS
 62
   155
100
AcDbLine
 10
11844.653958
 20
379.41006
 30
0.0
 11
21844.653958
 21
379.41006
 31
0.0
  0
LINE
  5
9D
330
1F
100
AcDbEntity
  8
1
  6
CONTINUOUS
 62
   155
100
AcDbLine
 10
11844.653958
 20
379.41006
 30
0.0
 11
11844.653958
 21
346.591893
 31
0.0
  0
LINE
  5
9E
330
1F
100
AcDbEntity
  8
1
  6
CONTINUOUS
 62
   155
100
AcDbLine
 10
11844.653958
 20
346.591893
 30
0.0
 11
21844.653958
 21
346.591893
 31
0.0
  0
LINE
  5
9F
330
1F
100
AcDbEntity
  8
1
  6
CONTINUOUS
 62
   155
100
AcDbLine
 10
11844.653958
 20
345.83468
 30
0.0
 11
21844.653958
 21
345.83468
 31
0.0
  0
LINE
  5
A0
330
1F
100
AcDbEntity
  8
1
  6
CONTINUOUS
 62
   155
100
AcDbLine
 10
11844.653958
 20
344.14089
 30
0.0
 11
11844.653958
 21
342.327573
 31
0.0
  0
LINE
  5
A1
330
1F
100
AcDbEntity
  8
1
  6
CONTINUOUS
 62
   155
100
AcDbLine
 10
11844.653958
 20
342.327573
 30
0.0
 11
21844.653958
 21
342.327573
 31
0.0
  0
LINE
  5
A2
330
1F
100
AcDbEntity
  8
1
  6
CONTINUOUS
 62
   155
100
AcDbLine
 10
21844.653958
 20
344.14089
 30
0.0
 11
21844.653958
 21
342.327573
 31
0.0
  0
LINE
  5
A3
330
1F
100
AcDbEntity
  8
1
  6
CONTINUOUS
 62
   155
100
AcDbLine
 10
11844.653958
 20
344.33468
 30
0.0
 11
21844.653958
 21
344.33468
 31
0.0
  0
LINE
  5
A4
330
1F
100
AcDbEntity
  8
1
  6
CONTINUOUS
 62
   155
100
AcDbLine
 10
11844.653958
 20
344.33468
 30
0.0
 11
11844.653958
 21
344.14089
 31
0.0
  0
LINE
  5
A5
330
1F
100
AcDbEntity
  8
1
  6
CONTINUOUS
 62
   155
100
AcDbLine
 10
21844.653958
 20
342.03468
 30
0.0
 11
21844.653958
 21
342.327573
 31
0.0
  0
LINE
  5
A6
330
1F
100
AcDbEntity
  8
1
  6
CONTINUOUS
 62
   155
100
AcDbLine
 10
11844.653958
 20
342.03468
 30
0.0
 11
11844.653958
 21
342.327573
 31
0.0
  0
LINE
  5
A7
330
1F
100
AcDbEntity
  8
1
  6
CONTINUOUS
 62
   155
100
AcDbLine
 10
11844.653958
 20
391.83468
 30
0.0
 11
11844.653958
 21
391.541786
 31
0.0
  0
LINE
  5
A8
330
1F
100
AcDbEntity
  8
1
  6
CONTINUOUS
 62
   155
100
AcDbLine
 10
21844.653958
 20
391.83468
 30
0.0
 11
21844.653958
 21
391.541786
 31
0.0
  0
LINE
  5
A9
330
1F
100
AcDbEntity
  8
1
  6
CONTINUOUS
 62
   155
100
AcDbLine
 10
11844.653958
 20
388.03468
 30
0.0
 11
11844.653958
 21
379.41006
 31
0.0
  0
LINE
  5
AA
330
1F
100
AcDbEntity
  8
1
  6
CONTINUOUS
 62
   155
100
AcDbLine
 10
21844.653958
 20
388.03468
 30
0.0
 11
21844.653958
 21
379.41006
 31
0.0
  0
LINE
  5
AB
330
1F
100
AcDbEntity
  8
1
  6
CONTINUOUS
 62
   155
100
AcDbLine
 10
21844.653958
 20
346.591893
 30
0.0
 11
21844.653958
 21
345.83468
 31
0.0
  0
LINE
  5
AC
330
1F
100
AcDbEntity
  8
1
  6
CONTINUOUS
 62
   155
100
AcDbLine
 10
11844.653958
 20
346.591893
 30
0.0
 11
11844.653958
 21
345.83468
 31
0.0
  0
LINE
  5
AD
330
1F
100
AcDbEntity
  8
1
  6
CONTINUOUS
 62
   155
100
AcDbLine
 10
10406.509416
 20
481.598398
 30
0.0
 11
10406.509416
 21
519.473778
 31
0.0
  0
LINE
  5
AE
330
1F
100
AcDbEntity
  8
1
  6
CONTINUOUS
 62
   155
100
AcDbLine
 10
10406.509416
 20
474.103474
 30
0.0
 11
406.509416
 21
474.103474
 31
0.0
  0
LINE
  5
AF
330
1F
100
AcDbEntity
  8
1
  6
CONTINUOUS
 62
   155
100
AcDbLine
 10
10406.509416
 20
472.290157
 30
0.0
 11
406.509416
 21
472.290157
 31
0.0
  0
LINE
  5
B0
330
1F
100
AcDbEntity
  8
1
  6
CONTINUOUS
 62
   155
100
AcDbLine
 10
406.509416
 20
472.290157
 30
0.0
 11
406.509416
 21
474.103474
 31
0.0
  0
LINE
  5
B1
330
1F
100
AcDbEntity
  8
1
  6
CONTINUOUS
 62
   155
100
AcDbLine
 10
10406.509416
 20
472.290157
 30
0.0
 11
10406.509416
 21
474.103474
 31
0.0
  0
LINE
  5
B2
330
1F
100
AcDbEntity
  8
1
  6
CONTINUOUS
 62
   155
100
AcDbLine
 10
406.509416
 20
475.517688
 30
0.0
 11
406.509416
 21
477.331005
 31
0.0
  0
LINE
  5
B3
330
1F
100
AcDbEntity
  8
1
  6
CONTINUOUS
 62
   155
100
AcDbLine
 10
10406.509416
 20
477.331005
 30
0.0
 11
406.509416
 21
477.331005
 31
0.0
  0
LINE
  5
B4
330
1F
100
AcDbEntity
  8
1
  6
CONTINUOUS
 62
   155
100
AcDbLine
 10
10406.509416
 20
475.517688
 30
0.0
 11
10406.509416
 21
477.331005
 31
0.0
  0
LINE
  5
B5
330
1F
100
AcDbEntity
  8
1
  6
CONTINUOUS
 62
   155
100
AcDbLine
 10
10406.509416
 20
481.598398
 30
0.0
 11
406.509416
 21
481.598398
 31
0.0
  0
LINE
  5
B6
330
1F
100
AcDbEntity
  8
1
  6
CONTINUOUS
 62
   155
100
AcDbLine
 10
10406.509416
 20
475.517688
 30
0.0
 11
406.509416
 21
475.517688
 31
0.0
  0
LINE
  5
B7
330
1F
100
AcDbEntity
  8
1
  6
CONTINUOUS
 62
   155
100
AcDbLine
 10
406.509416
 20
481.598398
 30
0.0
 11
406.509416
 21
519.473778
 31
0.0
  0
LINE
  5
B8
330
1F
100
AcDbEntity
  8
1
  6
CONTINUOUS
 62
   155
100
AcDbLine
 10
10406.509416
 20
519.473778
 30
0.0
 11
406.509416
 21
519.473778
 31
0.0
  0
LINE
  5
B9
330
1F
100
AcDbEntity
  8
1
  6
CONTINUOUS
 62
   155
100
AcDbLine
 10
10406.509416
 20
474.103474
 30
0.0
 11
10406.509416
 21
475.517688
 31
0.0
  0
LINE
  5
BA
330
1F
100
AcDbEntity
  8
1
  6
CONTINUOUS
 62
   155
100
AcDbLine
 10
406.509416
 20
474.103474
 30
0.0
 11
406.509416
 21
475.517688
 31
0.0
  0
LINE
  5
BB
330
1F
100
AcDbEntity
  8
1
  6
CONTINUOUS
 62
   155
100
AcDbLine
 10
10406.509416
 20
477.330852
 30
0.0
 11
10406.509416
 21
481.598398
 31
0.0
  0
LINE
  5
BC
330
1F
100
AcDbEntity
  8
1
  6
CONTINUOUS
 62
   155
100
AcDbLine
 10
406.509416
 20
477.330852
 30
0.0
 11
406.509416
 21
481.598398
 31
0.0
  0
LINE
  5
BD
330
1F
100
AcDbEntity
  8
1
  6
CONTINUOUS
 62
   155
100
AcDbLine
 10
10406.509416
 20
228.990154
 30
0.0
 11
406.509416
 21
228.990154
 31
0.0
  0
LINE
  5
BE
330
1F
100
AcDbEntity
  8
1
  6
CONTINUOUS
 62
   155
100
AcDbLine
 10
10406.509416
 20
227.575941
 30
0.0
 11
406.509416
 21
227.575941
 31
0.0
  0
LINE
  5
BF
330
1F
100
AcDbEntity
  8
1
  6
CONTINUOUS
 62
   155
100
AcDbLine
 10
10406.509416
 20
262.783051
 30
0.0
 11
10406.509416
 21
263.466668
 31
0.0
  0
LINE
  5
C0
330
1F
100
AcDbEntity
  8
1
  6
CONTINUOUS
 62
   155
100
AcDbLine
 10
406.509416
 20
225.762623
 30
0.0
 11
406.509416
 21
227.575941
 31
0.0
  0
LINE
  5
C1
330
1F
100
AcDbEntity
  8
1
  6
CONTINUOUS
 62
   155
100
AcDbLine
 10
10406.509416
 20
225.762623
 30
0.0
 11
406.509416
 21
225.762623
 31
0.0
  0
LINE
  5
C2
330
1F
100
AcDbEntity
  8
1
  6
CONTINUOUS
 62
   155
100
AcDbLine
 10
10406.509416
 20
230.803471
 30
0.0
 11
406.509416
 21
230.803471
 31
0.0
  0
LINE
  5
C3
330
1F
100
AcDbEntity
  8
1
  6
CONTINUOUS
 62
   155
100
AcDbLine
 10
10406.509416
 20
225.762623
 30
0.0
 11
10406.509416
 21
227.575941
 31
0.0
  0
LINE
  5
C4
330
1F
100
AcDbEntity
  8
1
  6
CONTINUOUS
 62
   155
100
AcDbLine
 10
406.509416
 20
228.990154
 30
0.0
 11
406.509416
 21
230.803471
 31
0.0
  0
LINE
  5
C5
330
1F
100
AcDbEntity
  8
1
  6
CONTINUOUS
 62
   155
100
AcDbLine
 10
10406.509416
 20
228.990154
 30
0.0
 11
10406.509416
 21
230.803471
 31
0.0
  0
LINE
  5
C6
330
1F
100
AcDbEntity
  8
1
  6
CONTINUOUS
 62
   155
100
AcDbLine
 10
10406.509416
 20
254.158427
 30
0.0
 11
406.509416
 21
254.158427
 31
0.0
  0
LINE
  5
C7
330
1F
100
AcDbEntity
  8
1
  6
CONTINUOUS
 62
   155
100
AcDbLine
 10
406.509416
 20
230.803766
 30
0.0
 11
406.509416
 21
254.158427
 31
0.0
  0
LINE
  5
C8
330
1F
100
AcDbEntity
  8
1
  6
CONTINUOUS
 62
   155
100
AcDbLine
 10
10406.509416
 20
262.783047
 30
0.0
 11
406.509416
 21
262.783047
 31
0.0
  0
LINE
  5
C9
330
1F
100
AcDbEntity
  8
1
  6
CONTINUOUS
 62
   155
100
AcDbLine
 10
10406.509416
 20
230.803766
 30
0.0
 11
10406.509416
 21
254.158427
 31
0.0
  0
LINE
  5
CA
330
1F
100
AcDbEntity
  8
1
  6
CONTINUOUS
 62
   155
100
AcDbLine
 10
10406.509416
 20
216.283047
 30
0.0
 11
406.509416
 21
216.283047
 31
0.0
  0
LINE
  5
CB
330
1F
100
AcDbEntity
  8
1
  6
CONTINUOUS
 62
   155
100
AcDbLine
 10
406.509416
 20
216.283047
 30
0.0
 11
406.509416
 21
225.762579
 31
0.0
  0
LINE
  5
CC
330
1F
100
AcDbEntity
  8
1
  6
CONTINUOUS
 62
   155
100
AcDbLine
 10
10406.509416
 20
216.283047
 30
0.0
 11
10406.509416
 21
225.762579
 31
0.0
  0
LINE
  5
CD
330
1F
100
AcDbEntity
  8
1
  6
CONTINUOUS
 62
   155
100
AcDbLine
 10
10406.509416
 20
263.466668
 30
0.0
 11
406.509416
 21
263.466668
 31
0.0
  0
LINE
  5
CE
330
1F
100
AcDbEntity
  8
1
  6
CONTINUOUS
 62
   155
100
AcDbLine
 10
406.509416
 20
262.783051
 30
0.0
 11
406.509416
 21
263.466668
 31
0.0
  0
LINE
  5
CF
330
1F
100
AcDbEntity
  8
1
  6
CONTINUOUS
 62
   155
100
AcDbLine
 10
406.509416
 20
227.575941
 30
0.0
 11
406.509416
 21
228.990154
 31
0.0
  0
LINE
  5
D0
330
1F
100
AcDbEntity
  8
1
  6
CONTINUOUS
 62
   155
100
AcDbLine
 10
10406.509416
 20
227.575941
 30
0.0
 11
10406.509416
 21
228.990154
 31
0.0
  0
LINE
  5
D1
330
1F
100
AcDbEntity
  8
1
  6
CONTINUOUS
 62
   155
100
AcDbLine
 10
406.509416
 20
254.158427
 30
0.0
 11
406.509416
 21
262.783047
 31
0.0
  0
LINE
  5
D2
330
1F
100
AcDbEntity
  8
1
  6
CONTINUOUS
 62
   155
100
AcDbLine
 10
10406.509416
 20
262.783047
 30
0.0
 11
10406.509416
 21
254.158427
 31
0.0
  0
LINE
  5
D3
330
1F
100
AcDbEntity
  8
1
  6
CONTINUOUS
 62
   155
100
AcDbLine
 10
313.116941
 20
345.63468
 30
0.0
 11
314.616941
 21
345.63468
 31
0.0
  0
LINE
  5
D4
330
1F
100
AcDbEntity
  8
1
  6
CONTINUOUS
 62
   155
100
AcDbLine
 10
314.616941
 20
345.63468
 30
0.0
 11
314.616941
 21
343.777573
 31
0.0
  0
LINE
  5
D5
330
1F
100
AcDbEntity
  8
1
  6
CONTINUOUS
 62
   155
100
AcDbLine
 10
313.513387
 20
343.381126
 30
0.0
 11
313.116941
 21
343.777573
 31
0.0
  0
LINE
  5
D6
330
1F
100
AcDbEntity
  8
1
  6
CONTINUOUS
 62
   155
100
AcDbLine
 10
280.453744
 20
388.23468
 30
0.0
 11
281.953744
 21
388.23468
 31
0.0
  0
LINE
  5
D7
330
1F
100
AcDbEntity
  8
1
  6
CONTINUOUS
 62
   155
100
AcDbLine
 10
280.850191
 20
390.488233
 30
0.0
 11
280.453744
 21
390.091786
 31
0.0
  0
LINE
  5
D8
330
1F
100
AcDbEntity
  8
1
  6
CONTINUOUS
 62
   155
100
AcDbLine
 10
314.703744
 20
347.09958
 30
0.0
 11
314.703744
 21
379.41006
 31
0.0
  0
LINE
  5
D9
330
1F
100
AcDbEntity
  8
1
  6
CONTINUOUS
 62
   155
100
AcDbLine
 10
312.853744
 20
346.59958
 30
0.0
 11
314.203744
 21
346.59958
 31
0.0
  0
LINE
  5
DA
330
1F
100
AcDbEntity
  8
1
  6
CONTINUOUS
 62
   155
100
AcDbLine
 10
312.445552
 20
344.33468
 30
0.0
 11
312.354429
 21
346.073412
 31
0.0
  0
LINE
  5
DB
330
1F
100
AcDbEntity
  8
1
  6
CONTINUOUS
 62
   155
100
AcDbLine
 10
311.346517
 20
344.14089
 30
0.0
 11
312.445552
 21
344.33468
 31
0.0
  0
LINE
  5
DC
330
1F
100
AcDbEntity
  8
1
  6
CONTINUOUS
 62
   155
100
AcDbLine
 10
313.159834
 20
342.327573
 30
0.0
 11
311.346517
 21
344.14089
 31
0.0
  0
LINE
  5
DD
330
1F
100
AcDbEntity
  8
1
  6
CONTINUOUS
 62
   155
100
AcDbLine
 10
280.453744
 20
390.091786
 30
0.0
 11
280.453744
 21
388.23468
 31
0.0
  0
LINE
  5
DE
330
1F
100
AcDbEntity
  8
1
  6
CONTINUOUS
 62
   155
100
AcDbLine
 10
316.387365
 20
344.14089
 30
0.0
 11
314.574047
 21
342.327573
 31
0.0
  0
LINE
  5
DF
330
1F
100
AcDbEntity
  8
1
  6
CONTINUOUS
 62
   155
100
AcDbLine
 10
281.953744
 20
390.091786
 30
0.0
 11
281.557297
 21
390.488233
 31
0.0
  0
LINE
  5
E0
330
1F
100
AcDbEntity
  8
1
  6
CONTINUOUS
 62
   155
100
AcDbLine
 10
281.953744
 20
388.23468
 30
0.0
 11
281.953744
 21
390.091786
 31
0.0
  0
LINE
  5
E1
330
1F
100
AcDbEntity
  8
1
  6
CONTINUOUS
 62
   155
100
AcDbLine
 10
313.116941
 20
343.777573
 30
0.0
 11
313.116941
 21
345.63468
 31
0.0
  0
LINE
  5
E2
330
1F
100
AcDbEntity
  8
1
  6
CONTINUOUS
 62
   155
100
AcDbLine
 10
315.288329
 20
344.33468
 30
0.0
 11
316.387365
 21
344.14089
 31
0.0
  0
LINE
  5
E3
330
1F
100
AcDbEntity
  8
1
  6
CONTINUOUS
 62
   155
100
AcDbLine
 10
315.366941
 20
345.83468
 30
0.0
 11
315.288329
 21
344.33468
 31
0.0
  0
LINE
  5
E4
330
1F
100
AcDbEntity
  8
1
  6
CONTINUOUS
 62
   155
100
AcDbLine
 10
315.703744
 20
379.41006
 30
0.0
 11
315.703744
 21
346.591893
 31
0.0
  0
LINE
  5
E5
330
1F
100
AcDbEntity
  8
1
  6
CONTINUOUS
 62
   155
100
AcDbLine
 10
282.703744
 20
388.03468
 30
0.0
 11
307.079124
 21
388.03468
 31
0.0
  0
LINE
  5
E6
330
1F
100
AcDbEntity
  8
1
  6
CONTINUOUS
 62
   155
100
AcDbLine
 10
282.625132
 20
389.53468
 30
0.0
 11
282.703744
 21
388.03468
 31
0.0
  0
LINE
  5
E7
330
1F
100
AcDbEntity
  8
1
  6
CONTINUOUS
 62
   155
100
AcDbLine
 10
283.724168
 20
389.728469
 30
0.0
 11
282.625132
 21
389.53468
 31
0.0
  0
LINE
  5
E8
330
1F
100
AcDbEntity
  8
1
  6
CONTINUOUS
 62
   155
100
AcDbLine
 10
281.910851
 20
391.541786
 30
0.0
 11
283.724168
 21
389.728469
 31
0.0
  0
LINE
  5
E9
330
1F
100
AcDbEntity
  8
1
  6
CONTINUOUS
 62
   155
100
AcDbLine
 10
278.68332
 20
389.728469
 30
0.0
 11
280.496637
 21
391.541786
 31
0.0
  0
LINE
  5
EA
330
1F
100
AcDbEntity
  8
1
  6
CONTINUOUS
 62
   155
100
AcDbLine
 10
279.782356
 20
389.53468
 30
0.0
 11
278.68332
 21
389.728469
 31
0.0
  0
LINE
  5
EB
330
1F
100
AcDbEntity
  8
1
  6
CONTINUOUS
 62
   155
100
AcDbLine
 10
279.703744
 20
388.03468
 30
0.0
 11
279.782356
 21
389.53468
 31
0.0
  0
LINE
  5
EC
330
1F
100
AcDbEntity
  8
1
  6
CONTINUOUS
 62
   155
100
AcDbLine
 10
269.203744
 20
388.03468
 30
0.0
 11
279.703744
 21
388.03468
 31
0.0
  0
LINE
  5
ED
330
1F
100
AcDbEntity
  8
1
  6
CONTINUOUS
 62
   155
100
AcDbLine
 10
269.203744
 20
387.03468
 30
0.0
 11
269.203744
 21
388.03468
 31
0.0
  0
LINE
  5
EE
330
1F
100
AcDbEntity
  8
1
  6
CONTINUOUS
 62
   155
100
AcDbLine
 10
307.079124
 20
387.03468
 30
0.0
 11
269.203744
 21
387.03468
 31
0.0
  0
LINE
  5
EF
330
1F
100
AcDbEntity
  8
1
  6
CONTINUOUS
 62
   155
100
AcDbLine
 10
314.616941
 20
343.777573
 30
0.0
 11
314.220494
 21
343.381126
 31
0.0
  0
ARC
  5
F0
330
1F
100
AcDbEntity
  8
1
  6
CONTINUOUS
 62
   155
100
AcDbCircle
 10
11064.439814
 20
343.73468
 30
0.0
 40
0.4999999999999991
100
AcDbArc
 50
225.0
 51
315.0
  0
ARC
  5
F1
330
1F
100
AcDbEntity
  8
1
  6
CONTINUOUS
 62
   155
100
AcDbCircle
 10
-11097.103011
 20
390.13468
 30
0.0
 40
0.4999999999999997
210
6.123233995736766E-17
220
0.0
230
-1.0
100
AcDbArc
 50
45.0
 51
135.0
  0
ARC
  5
F2
330
1F
100
AcDbEntity
  8
1
  6
CONTINUOUS
 62
   155
100
AcDbCircle
 10
11063.622611
 20
346.591893
 30
0.0
 40
1.0196
100
AcDbArc
 50
180.0
 51
227.958315
  0
ARC
  5
F3
330
1F
100
AcDbEntity
  8
1
  6
CONTINUOUS
 62
   155
100
AcDbCircle
 10
11071.227631
 20
379.41006
 30
0.0
 40
8.624619947621685
100
AcDbArc
 50
90.0
 51
180.0
  0
ARC
  5
F4
330
1F
100
AcDbEntity
  8
1
  6
CONTINUOUS
 62
   155
100
AcDbCircle
 10
11097.103011
 20
390.83468
 30
0.0
 40
1.0
100
AcDbArc
 50
45.0
 51
135.0
  0
ARC
  5
F5
330
1F
100
AcDbEntity
  8
1
  6
CONTINUOUS
 62
   155
100
AcDbCircle
 10
-11071.227631
 20
379.41006
 30
0.0
 40
7.624619947621692
210
6.123233995736766E-17
220
0.0
230
-1.0
100
AcDbArc
 50
360.0
 51
90.0
  0
ARC
  5
F6
330
1F
100
AcDbEntity
  8
1
  6
CONTINUOUS
 62
   155
100
AcDbCircle
 10
-11064.103011
 20
347.09958
 30
0.0
 40
0.5
210
6.123233995736766E-17
220
0.0
230
-1.0
100
AcDbArc
 50
270.0
 51
0.0
  0
ARC
  5
F7
330
1F
100
AcDbEntity
  8
1
  6
CONTINUOUS
 62
   155
100
AcDbCircle
 10
11065.453011
 20
346.09958
 30
0.0
 40
0.5
100
AcDbArc
 50
357.0
 51
90.0
  0
ARC
  5
F8
330
1F
100
AcDbEntity
  8
1
  6
CONTINUOUS
 62
   155
100
AcDbCircle
 10
11064.439814
 20
343.03468
 30
0.0
 40
1.0
100
AcDbArc
 50
225.0
 51
315.0
  0
ARC
  5
F9
330
1F
100
AcDbEntity
  8
1
  6
CONTINUOUS
 62
   155
100
AcDbCircle
 10
-313.866941
 20
343.03468
 30
0.0
 40
1.0
210
0.0
220
0.0
230
-1.0
100
AcDbArc
 50
225.0
 51
315.0
  0
ARC
  5
FA
330
1F
100
AcDbEntity
  8
1
  6
CONTINUOUS
 62
   155
100
AcDbCircle
 10
-313.866941
 20
343.73468
 30
0.0
 40
0.4999999999999991
210
0.0
220
0.0
230
-1.0
100
AcDbArc
 50
225.0
 51
315.0
  0
ARC
  5
FB
330
1F
100
AcDbEntity
  8
1
  6
CONTINUOUS
 62
   155
100
AcDbCircle
 10
307.079124
 20
379.41006
 30
0.0
 40
7.624619947621692
100
AcDbArc
 50
0.0
 51
90.0
  0
ARC
  5
FC
330
1F
100
AcDbEntity
  8
1
  6
CONTINUOUS
 62
   155
100
AcDbCircle
 10
314.203744
 20
347.09958
 30
0.0
 40
0.5
100
AcDbArc
 50
270.0
 51
0.0
  0
ARC
  5
FD
330
1F
100
AcDbEntity
  8
1
  6
CONTINUOUS
 62
   155
100
AcDbCircle
 10
-312.853744
 20
346.09958
 30
0.0
 40
0.5
210
0.0
220
0.0
230
-1.0
100
AcDbArc
 50
357.0
 51
90.0
  0
ARC
  5
FE
330
1F
100
AcDbEntity
  8
1
  6
CONTINUOUS
 62
   155
100
AcDbCircle
 10
281.203744
 20
390.13468
 30
0.0
 40
0.4999999999999997
100
AcDbArc
 50
45.0
 51
135.0
  0
ARC
  5
FF
330
1F
100
AcDbEntity
  8
1
  6
CONTINUOUS
 62
   155
100
AcDbCircle
 10
-314.684144
 20
346.591893
 30
0.0
 40
1.0196
210
0.0
220
0.0
230
-1.0
100
AcDbArc
 50
180.0
 51
227.958315
  0
ARC
  5
100
330
1F
100
AcDbEntity
  8
1
  6
CONTINUOUS
 62
   155
100
AcDbCircle
 10
-307.079124
 20
379.41006
 30
0.0
 40
8.624619947621685
210
0.0
220
0.0
230
-1.0
100
AcDbArc
 50
90.0
 51
180.0
  0
ARC
  5
101
330
1F
100
AcDbEntity
  8
1
  6
CONTINUOUS
 62
   155
100
AcDbCircle
 10
-281.203744
 20
390.83468
 30
0.0
 40
1.0
210
0.0
220
0.0
230
-1.0
100
AcDbArc
 50
45.0
 51
135.0
  0
MTEXT
  5
102
330
1F
100
AcDbEntity
  8
1
  6
CONTINUOUS
 62
    35
100
AcDbMText
 10
11063.471056
 20
500.334374
 30
0.0
 40
3.5
 41
0.0
 71
     7
 72
     5
  3
\W00.815;! ACHTUNG !\PJede Vervielfältigung, Verwertung oder Weitergabe dieser Zeichnung ohne unsere ausdrückliche schriftliche\PGenehmigung ist aufgrund bestehender gesetzlicher Vorschriften untersagt und wird strafrechtlich verfolgt.\PAlle Rechte 
  1
vorbehalten.\P\P! ATTENTION !\PAny reproduction, recovery, or transfer of this drawing without our express written\Ppermission is prohibited under existing legislation and will be prosecuted.\PAll rights reserved.\P 
  7
ISO-1
1001
ACAD
1000
MTEXTBEGIN
1070
    44
1040
0.963855
1000
MTEXTEND
1000
ACAD_MTEXT_DEFINED_HEIGHT_BEGIN
1070
    46
1040
0.2
1000
ACAD_MTEXT_DEFINED_HEIGHT_END
  0
MTEXT
  5
105
330
1F
100
AcDbEntity
  8
1
  6
CONTINUOUS
 62
    35
100
AcDbMText
 10
11170.700661
 20
486.203986
 30
0.0
 40
5.0
 41
0.0
 71
     7
 72
     5
  1
\W00.779;356640W 
  7
ISO-1
1001
ACAD
1000
MTEXTBEGIN
1070
    73
1070
     2
1070
    44
1040
0.963855
1000
MTEXTEND
1000
ACAD_MTEXT_DEFINED_HEIGHT_BEGIN
1070
    46
1040
0.2
1000
ACAD_MTEXT_DEFINED_HEIGHT_END
  0
ENDSEC
  0
SECTION
  2
OBJECTS
  0
DICTIONARY
  5
C
330
0
100
AcDbDictionary
  3
ACAD_GROUP
350
D
  3
ACAD_LAYOUT
350
1A
  3
ACAD_MATERIAL
350
3B
  3
ACAD_MLEADERSTYLE
350
140
  3
ACAD_MLINESTYLE
350
17
  3
ACAD_PLOTSETTINGS
350
19
  3
ACAD_VISUALSTYLE
350
2A
  3
ACDBHEADERROUNDTRIPXREC
350
11E
  3
ACDBVARIABLEDICTIONARY
350
13E
  0
DICTIONARY
  5
D
102
{ACAD_REACTORS
330
C
102
}
330
C
100
AcDbDictionary
  0
DICTIONARY
  5
1A
102
{ACAD_REACTORS
330
C
102
}
330
C
100
AcDbDictionary
  0
DICTIONARY
  5
3B
102
{ACAD_REACTORS
330
C
102
}
330
C
100
AcDbDictionary
  3
BYBLOCK
350
3D
  3
BYLAYER
350
3C
  3
GLOBAL
350
3E
  0
DICTIONARY
  5
140
102
{ACAD_REACTORS
330
C
102
}
330
C
100
AcDbDictionary
  0
DICTIONARY
  5
17
102
{ACAD_REACTORS
330
C
102
}
330
C
100
AcDbDictionary
  3
STANDARD
350
18
  0
DICTIONARY
  5
19
102
{ACAD_REACTORS
330
C
102
}
330
C
100
AcDbDictionary
  0
DICTIONARY
  5
2A
102
{ACAD_REACTORS
330
C
102
}
330
C
100
AcDbDictionary
  3
2DWIREFRAME
350
2F
  3
3D_HIDDEN
350
31
  3
3DWIREFRAME
350
30
  3
BASIC
350
32
  3
BRIGHTEN
350
36
  3
COLORCHANGE
350
3A
  3
CONCEPTUAL
350
34
  3
DIM
350
35
  3
FACEPATTERN
350
39
  3
FLAT
350
2B
  3
FLATWITHEDGES
350
2C
  3
GOURAUD
350
2D
  3
GOURAUDWITHEDGES
350
2E
  3
LINEPATTERN
350
38
  3
REALISTIC
350
33
  3
THICKEN
350
37
  0
DICTIONARY
  5
11E
102
{ACAD_REACTORS
330
C
102
}
330
C
100
AcDbDictionary
  3
CEPSNTYPE
350
127
  3
DIMSTYLEDATA
350
13D
  3
FINGERPRINTGUID
350
128
  3
HYPERLINKBASE
350
121
  3
INSUNITS
350
126
  3
LAYOUTDICT
350
123
  3
LWETCUNION
350
125
  3
PLOTSETDICT
350
124
  3
PSVPSCALE
350
12A
  3
PUCSBASE
350
12D
  3
PUCSORGBACK
350
133
  3
PUCSORGBOTTOM
350
12F
  3
PUCSORGFRONT
350
132
  3
PUCSORGLEFT
350
130
  3
PUCSORGRIGHT
350
131
  3
PUCSORGTOP
350
12E
  3
PUCSORTHOREF
350
12B
  3
PUCSORTHOVIEW
350
12C
  3
STYLESHEET
350
122
  3
TSTACKALIGN
350
11F
  3
TSTACKSIZE
350
120
  3
UCSBASE
350
136
  3
UCSORGBACK
350
13C
  3
UCSORGBOTTOM
350
138
  3
UCSORGFRONT
350
13B
  3
UCSORGLEFT
350
139
  3
UCSORGRIGHT
350
13A
  3
UCSORGTOP
350
137
  3
UCSORTHOREF
350
134
  3
UCSORTHOVIEW
350
135
  3
VERSIONGUID
350
129
  0
DICTIONARY
  5
13E
102
{ACAD_REACTORS
330
C
102
}
330
C
100
AcDbDictionary
  3
DIMASSOC
350
141
  3
HIDETEXT
350
142
  0
MATERIAL
  5
3D
102
{ACAD_REACTORS
330
3B
102
}
102
{ACAD_XDICTIONARY
360
145
102
}
330
3B
100
AcDbMaterial
  1
ByBlock
  0
MATERIAL
  5
3C
102
{ACAD_REACTORS
330
3B
102
}
102
{ACAD_XDICTIONARY
360
143
102
}
330
3B
100
AcDbMaterial
  1
ByLayer
  0
MATERIAL
  5
3E
102
{ACAD_REACTORS
330
3B
102
}
102
{ACAD_XDICTIONARY
360
147
102
}
330
3B
100
AcDbMaterial
  1
Global
  0
MLINESTYLE
  5
18
102
{ACAD_REACTORS
330
17
102
}
330
17
100
AcDbMlineStyle
  2
Standard
 70
     0
  3

 62
   256
 51
90.0
 52
90.0
 71
     2
 49
0.5
 62
   256
  6
BYLAYER
 49
-0.5
 62
   256
  6
BYLAYER
  0
ACAD_PROXY_OBJECT
  5
2F
102
{ACAD_REACTORS
330
2A
102
}
330
2A
100
AcDbProxyObject
 90
      499
 91
      501
 93
      436
310
42CC9915DA5C99599C985B595049028333333333333E3BF0000000000000FB0107901411070040501600405405064090741402480A0340
1001
ACAD
1000
AcDbSavedByObjectVersion
1070
     0
  0
ACAD_PROXY_OBJECT
  5
31
102
{ACAD_REACTORS
330
2A
102
}
330
2A
100
AcDbProxyObject
 90
      499
 91
      501
 93
      500
310
424CD108121A5919195B90640502408333333333333E3BF0000000000000FB01079024090700405020000000000001110200405405064090740C02480A0340
1001
ACAD
1000
AcDbSavedByObjectVersion
1070
     0
  0
ACAD_PROXY_OBJECT
  5
30
102
{ACAD_REACTORS
330
2A
102
}
330
2A
100
AcDbProxyObject
 90
      499
 91
      501
 93
      436
310
42CCD915DA5C99599C985B595059028333333333333E3BF0000000000000FB0107901411070040501600405405064090741402480A0340
1001
ACAD
1000
AcDbSavedByObjectVersion
1070
     0
  0
ACAD_PROXY_OBJECT
  5
32
102
{ACAD_REACTORS
330
2A
102
}
330
2A
100
AcDbProxyObject
 90
      499
 91
      501
 93
      388
310
4150985CDA58D07406404333333333333E3BF0000000000000FB0107A41107004050150841D405064090741402480A0350
1001
ACAD
1000
AcDbSavedByObjectVersion
1070
     0
  0
ACAD_PROXY_OBJECT
  5
36
102
{ACAD_REACTORS
330
2A
102
}
330
2A
100
AcDbProxyObject
 90
      499
 91
      501
 93
      428
310
42109C9A59DA1D195B90C409028333333333333E3BF0000000000000FB010790141107004050150841D405064090741402480A029950
1001
ACAD
1000
AcDbSavedByObjectVersion
1070
     0
  0
ACAD_PROXY_OBJECT
  5
3A
102
{ACAD_REACTORS
330
2A
102
}
330
2A
100
AcDbProxyObject
 90
      499
 91
      501
 93
      452
310
42D0DBDB1BDC90DA185B99D95104090240C333333333333E3BF0000000000000FB0108901411070040501508421405064090741402480A0350
1001
ACAD
1000
AcDbSavedByObjectVersion
1070
     0
  0
ACAD_PROXY_OBJECT
  5
34
102
{ACAD_REACTORS
330
2A
102
}
330
2A
100
AcDbProxyObject
 90
      499
 91
      501
 93
      500
310
4290DBDB98D95C1D1D585B10940D028333333333333E3BF0000000000000FB0107902409070040501000000000000111010841D405064090740C02480A0340
1001
ACAD
1000
AcDbSavedByObjectVersion
1070
     0
  0
ACAD_PROXY_OBJECT
  5
35
102
{ACAD_REACTORS
330
2A
102
}
330
2A
100
AcDbProxyObject
 90
      499
 91
      501
 93
      412
310
40D11A5B50B409028333333333333E3BF0000000000000FB010790141107004050150841D405064090741402480A02677FFFFFD0
1001
ACAD
1000
AcDbSavedByObjectVersion
1070
     0
  0
ACAD_PROXY_OBJECT
  5
39
102
{ACAD_REACTORS
330
2A
102
}
330
2A
100
AcDbProxyObject
 90
      499
 91
      501
 93
      444
310
42D19858D95C185D1D195C9B90F409028333333333333E3BF0000000000000FB010790141107004050150841D405064090741402480A0350
1001
ACAD
1000
AcDbSavedByObjectVersion
1070
     0
  0
ACAD_PROXY_OBJECT
  5
2B
102
{ACAD_REACTORS
330
2A
102
}
330
2A
100
AcDbProxyObject
 90
      499
 91
      501
 93
      388
310
41119B185D240901404333333333333E3BF0000000000000F9010740A41107004050150841D405064090741402480A1B50
1001
ACAD
1000
AcDbSavedByObjectVersion
1070
     0
  0
ACAD_PROXY_OBJECT
  5
2C
102
{ACAD_REACTORS
330
2A
102
}
330
2A
100
AcDbProxyObject
 90
      499
 91
      501
 93
      476
310
43519B185D15DA5D1A115919D95CD0140901404333333333333E3BF0000000000000F9010740901411070040501600405405064090741402480A1B50
1001
ACAD
1000
AcDbSavedByObjectVersion
1070
     0
  0
ACAD_PROXY_OBJECT
  5
2D
102
{ACAD_REACTORS
330
2A
102
}
330
2A
100
AcDbProxyObject
 90
      499
 91
      501
 93
      412
310
41D1DBDD5C985D5910240902404333333333333E3BF0000000000000F9010740A411070040501641D405064090741402480A1B50
1001
ACAD
1000
AcDbSavedByObjectVersion
1070
     0
  0
ACAD_PROXY_OBJECT
  5
2E
102
{ACAD_REACTORS
330
2A
102
}
330
2A
100
AcDbProxyObject
 90
      499
 91
      501
 93
      500
310
4411DBDD5C985D5915DA5D1A115919D95CD0340902404333333333333E3BF0000000000000F9010740901411070040501600405405064090741402480A1B50
1001
ACAD
1000
AcDbSavedByObjectVersion
1070
     0
  0
ACAD_PROXY_OBJECT
  5
38
102
{ACAD_REACTORS
330
2A
102
}
330
2A
100
AcDbProxyObject
 90
      499
 91
      501
 93
      444
310
42D31A5B995C185D1D195C9B90E409028333333333333E3BF0000000000000FB010790141107004050750841D405064090741402483A0350
1001
ACAD
1000
AcDbSavedByObjectVersion
1070
     0
  0
ACAD_PROXY_OBJECT
  5
33
102
{ACAD_REACTORS
330
2A
102
}
330
2A
100
AcDbProxyObject
 90
      499
 91
      501
 93
      420
310
425499585B1A5CDD1A58D08409028333333333333E3BF0000000000000FB01079019070040501508421405064090741402480A1B40
1001
ACAD
1000
AcDbSavedByObjectVersion
1070
     0
  0
ACAD_PROXY_OBJECT
  5
37
102
{ACAD_REACTORS
330
2A
102
}
330
2A
100
AcDbProxyObject
 90
      499
 91
      501
 93
      412
310
41D51A1A58DAD95B90D409028333333333333E3BF0000000000000FB010790141107004050150C41D405064090741402480A0350
1001
ACAD
1000
AcDbSavedByObjectVersion
1070
     0
  0
XRECORD
  5
127
102
{ACAD_REACTORS
330
11E
102
}
330
11E
100
AcDbXrecord
 90
        0
  0
XRECORD
  5
13D
102
{ACAD_REACTORS
330
11E
102
}
330
11E
100
AcDbXrecord
1000
DSTYLE
1002
{
1070
   171
 70
     2
1070
   143
 40
25.4
1070
   274
 70
     2
1070
    41
 40
0.18
1070
   141
 40
0.09
1070
   271
 70
     4
1070
    43
 40
0.38
1070
   278
 70
    46
1070
    44
 40
0.18
1070
    42
 40
0.0625
1070
   147
 40
0.09
1070
    77
 70
     0
1070
   272
 70
     4
1070
    73
 70
     1
1070
   172
 70
     0
1070
    74
 70
     1
1070
   283
 70
     1
1070
   340
340
11
1070
   140
 40
0.18
1070
   284
 70
     0
1070
    78
 70
     0
1002
}
  0
XRECORD
  5
128
102
{ACAD_REACTORS
330
11E
102
}
330
11E
100
AcDbXrecord
  1
{11860DCB-DBAF-499E-9C9F-2BFA955D6F91}
  0
XRECORD
  5
121
102
{ACAD_REACTORS
330
11E
102
}
330
11E
100
AcDbXrecord
  1

  0
XRECORD
  5
126
102
{ACAD_REACTORS
330
11E
102
}
330
11E
100
AcDbXrecord
 90
        4
  0
XRECORD
  5
123
102
{ACAD_REACTORS
330
11E
102
}
330
11E
100
AcDbXrecord
340
1A
  0
XRECORD
  5
125
102
{ACAD_REACTORS
330
11E
102
}
330
11E
100
AcDbXrecord
 90
    10781
  0
XRECORD
  5
124
102
{ACAD_REACTORS
330
11E
102
}
330
11E
100
AcDbXrecord
340
19
  0
XRECORD
  5
12A
102
{ACAD_REACTORS
330
11E
102
}
330
11E
100
AcDbXrecord
 40
0.0
  0
XRECORD
  5
12D
102
{ACAD_REACTORS
330
11E
102
}
330
11E
100
AcDbXrecord
340
0
  0
XRECORD
  5
133
102
{ACAD_REACTORS
330
11E
102
}
330
11E
100
AcDbXrecord
 10
0.0
 20
0.0
 30
0.0
  0
XRECORD
  5
12F
102
{ACAD_REACTORS
330
11E
102
}
330
11E
100
AcDbXrecord
 10
0.0
 20
0.0
 30
0.0
  0
XRECORD
  5
132
102
{ACAD_REACTORS
330
11E
102
}
330
11E
100
AcDbXrecord
 10
0.0
 20
0.0
 30
0.0
  0
XRECORD
  5
130
102
{ACAD_REACTORS
330
11E
102
}
330
11E
100
AcDbXrecord
 10
0.0
 20
0.0
 30
0.0
  0
XRECORD
  5
131
102
{ACAD_REACTORS
330
11E
102
}
330
11E
100
AcDbXrecord
 10
0.0
 20
0.0
 30
0.0
  0
XRECORD
  5
12E
102
{ACAD_REACTORS
330
11E
102
}
330
11E
100
AcDbXrecord
 10
0.0
 20
0.0
 30
0.0
  0
XRECORD
  5
12B
102
{ACAD_REACTORS
330
11E
102
}
330
11E
100
AcDbXrecord
340
0
  0
XRECORD
  5
12C
102
{ACAD_REACTORS
330
11E
102
}
330
11E
100
AcDbXrecord
 70
     0
  0
XRECORD
  5
122
102
{ACAD_REACTORS
330
11E
102
}
330
11E
100
AcDbXrecord
  1

  0
XRECORD
  5
11F
102
{ACAD_REACTORS
330
11E
102
}
330
11E
100
AcDbXrecord
 90
        1
  0
XRECORD
  5
120
102
{ACAD_REACTORS
330
11E
102
}
330
11E
100
AcDbXrecord
 90
       70
  0
XRECORD
  5
136
102
{ACAD_REACTORS
330
11E
102
}
330
11E
100
AcDbXrecord
340
0
  0
XRECORD
  5
13C
102
{ACAD_REACTORS
330
11E
102
}
330
11E
100
AcDbXrecord
 10
0.0
 20
0.0
 30
0.0
  0
XRECORD
  5
138
102
{ACAD_REACTORS
330
11E
102
}
330
11E
100
AcDbXrecord
 10
0.0
 20
0.0
 30
0.0
  0
XRECORD
  5
13B
102
{ACAD_REACTORS
330
11E
102
}
330
11E
100
AcDbXrecord
 10
0.0
 20
0.0
 30
0.0
  0
XRECORD
  5
139
102
{ACAD_REACTORS
330
11E
102
}
330
11E
100
AcDbXrecord
 10
0.0
 20
0.0
 30
0.0
  0
XRECORD
  5
13A
102
{ACAD_REACTORS
330
11E
102
}
330
11E
100
AcDbXrecord
 10
0.0
 20
0.0
 30
0.0
  0
XRECORD
  5
137
102
{ACAD_REACTORS
330
11E
102
}
330
11E
100
AcDbXrecord
 10
0.0
 20
0.0
 30
0.0
  0
XRECORD
  5
134
102
{ACAD_REACTORS
330
11E
102
}
330
11E
100
AcDbXrecord
340
0
  0
XRECORD
  5
135
102
{ACAD_REACTORS
330
11E
102
}
330
11E
100
AcDbXrecord
 70
     0
  0
XRECORD
  5
129
102
{ACAD_REACTORS
330
11E
102
}
330
11E
100
AcDbXrecord
  1
{FAEB1C32-E019-11D5-929B-00C0DF256EC4}
  0
DICTIONARYVAR
  5
141
102
{ACAD_REACTORS
330
13E
102
}
330
13E
100
DictionaryVariables
280
     0
  1
2
  0
DICTIONARYVAR
  5
142
102
{ACAD_REACTORS
330
13E
102
}
330
13E
100
DictionaryVariables
280
     0
  1
1
  0
DICTIONARY
  5
145
330
3D
100
AcDbDictionary
280
     1
  3
ACAD_XREC_ROUNDTRIP
360
146
  0
DICTIONARY
  5
143
330
3C
100
AcDbDictionary
280
     1
  3
ACAD_XREC_ROUNDTRIP
360
144
  0
DICTIONARY
  5
147
330
3E
100
AcDbDictionary
280
     1
  3
ACAD_XREC_ROUNDTRIP
360
148
  0
XRECORD
  5
146
102
{ACAD_REACTORS
330
145
102
}
330
145
100
AcDbXrecord
102
MATERIAL
148
0.0
149
0.0
149
0.0
 93
        0
 94
      127
282
     0
 72
     1
 77
     1
171
     1
175
     1
179
     1
273
     0
  0
XRECORD
  5
144
102
{ACAD_REACTORS
330
143
102
}
330
143
100
AcDbXrecord
102
MATERIAL
148
0.0
149
0.0
149
0.0
 93
        0
 94
      127
282
     0
 72
     1
 77
     1
171
     1
175
     1
179
     1
273
     0
  0
XRECORD
  5
148
102
{ACAD_REACTORS
330
147
102
}
330
147
100
AcDbXrecord
102
MATERIAL
148
0.0
149
0.0
149
0.0
 93
        0
 94
      127
282
     0
 72
     1
 77
     1
171
     1
175
     1
179
     1
273
     0
  0
ENDSEC
  0
EOF
