  0
SECTION
  2
HEADER
  9
$ACADVER
  1
AC1015
  9
$ACADMAINTVER
 70
         6
  9
$DWGCODEPAGE
  3
ANSI_1252
  9
$INSBASE
 10
0.0
 20
0.0
 30
0.0
  9
$EXTMIN
 10
0.0
 20
0.0
 30
0.0
  9
$EXTMAX
 10
420.0
 20
297.0
 30
0.0
  9
$LIMMIN
 10
0.0
 20
0.0
  9
$LIMMAX
 10
420.0
 20
297.0
  9
$ORTHOMODE
 70
         0
  9
$REGENMODE
 70
         1
  9
$FILLMODE
 70
         1
  9
$QTEXTMODE
 70
         0
  9
$MIRRTEXT
 70
         1
  9
$LTSCALE
 40
25.4
  9
$ATTMODE
 70
         1
  9
$TEXTSIZE
 40
0.2
  9
$TRACEWID
 40
0.05
  9
$TEXTSTYLE
  7
Standard
  9
$CLAYER
  8
0
  9
$CELTYPE
  6
CONTINUOUS
  9
$CECOLOR
 62
       256
  9
$CELTSCALE
 40
1.0
  9
$DISPSILH
 70
         0
  9
$DIMSCALE
 40
1.0
  9
$DIMASZ
 40
0.18
  9
$DIMEXO
 40
0.0625
  9
$DIMDLI
 40
0.38
  9
$DIMRND
 40
0.0
  9
$DIMDLE
 40
0.0
  9
$DIMEXE
 40
0.18
  9
$DIMTP
 40
0.0
  9
$DIMTM
 40
0.0
  9
$DIMTXT
 40
0.18
  9
$DIMCEN
 40
0.09
  9
$DIMTSZ
 40
0.0
  9
$DIMTOL
 70
         0
  9
$DIMLIM
 70
         0
  9
$DIMTIH
 70
         1
  9
$DIMTOH
 70
         1
  9
$DIMSE1
 70
         0
  9
$DIMSE2
 70
         0
  9
$DIMTAD
 70
         0
  9
$DIMZIN
 70
         0
  9
$DIMBLK
  1

  9
$DIMASO
 70
         1
  9
$DIMSHO
 70
         1
  9
$DIMPOST
  1

  9
$DIMAPOST
  1

  9
$DIMALT
 70
         0
  9
$DIMALTD
 70
         2
  9
$DIMALTF
 40
25.4
  9
$DIMLFAC
 40
1.0
  9
$DIMTOFL
 70
         0
  9
$DIMTVP
 40
0.0
  9
$DIMTIX
 70
         0
  9
$DIMSOXD
 70
         0
  9
$DIMSAH
 70
         0
  9
$DIMBLK1
  1

  9
$DIMBLK2
  1

  9
$DIMSTYLE
  2
Standard
  9
$DIMCLRD
 70
         0
  9
$DIMCLRE
 70
         0
  9
$DIMCLRT
 70
         0
  9
$DIMTFAC
 40
1.0
  9
$DIMGAP
 40
0.09
  9
$DIMJUST
 70
         0
  9
$DIMSD1
 70
         0
  9
$DIMSD2
 70
         0
  9
$DIMTOLJ
 70
         1
  9
$DIMTZIN
 70
         0
  9
$DIMALTZ
 70
         0
  9
$DIMALTTZ
 70
         0
  9
$DIMUPT
 70
         0
  9
$DIMDEC
 70
         4
  9
$DIMTDEC
 70
         4
  9
$DIMALTU
 70
         2
  9
$DIMALTTD
 70
         2
  9
$DIMTXSTY
  7
Standard
  9
$DIMAUNIT
 70
         0
  9
$DIMADEC
 70
         0
  9
$DIMALTRND
 40
0.0
  9
$DIMAZIN
 70
         0
  9
$DIMDSEP
 70
         0
  9
$DIMATFIT
 70
         3
  9
$DIMFRAC
 70
         0
  9
$DIMLDRBLK
  1

  9
$DIMLUNIT
 70
         2
  9
$DIMLWD
 70
         0
  9
$DIMLWE
 70
         0
  9
$DIMTMOVE
 70
         0
  9
$LUNITS
 70
         2
  9
$LUPREC
 70
         4
  9
$SKETCHINC
 40
0.1
  9
$FILLETRAD
 40
0.0
  9
$AUNITS
 70
         0
  9
$AUPREC
 70
         0
  9
$MENU
  1
acad
  9
$ELEVATION
 40
0.0
  9
$PELEVATION
 40
0.0
  9
$THICKNESS
 40
0.0
  9
$LIMCHECK
 70
         0
  9
$CHAMFERA
 40
0.0
  9
$CHAMFERB
 40
0.0
  9
$CHAMFERC
 40
0.0
  9
$CHAMFERD
 40
0.0
  9
$SKPOLY
 70
         0
  9
$TDCREATE
 40
0.000000000
  9
$TDUCREATE
 40
0.000000000
  9
$TDUPDATE
 40
0.000000000
  9
$TDUUPDATE
 40
0.000000000
  9
$TDINDWG
 40
0.0000000000
  9
$TDUSRTIMER
 40
0.0000000000
  9
$USRTIMER
 70
         1
  9
$ANGBASE
 50
0.0
  9
$ANGDIR
 70
         0
  9
$PDMODE
 70
         0
  9
$PDSIZE
 40
0.0
  9
$PLINEWID
 40
0.0
  9
$SPLFRAME
 70
         0
  9
$SPLINETYPE
 70
         6
  9
$SPLINESEGS
 70
         8
  9
$HANDSEED
  5
106
  9
$SURFTAB1
 70
         6
  9
$SURFTAB2
 70
         6
  9
$SURFTYPE
 70
         6
  9
$SURFU
 70
         6
  9
$SURFV
 70
         6
  9
$UCSBASE
  2

  9
$UCSNAME
  2

  9
$UCSORG
 10
0.0
 20
0.0
 30
0.0
  9
$UCSXDIR
 10
1.0
 20
0.0
 30
0.0
  9
$UCSYDIR
 10
0.0
 20
1.0
 30
0.0
  9
$UCSORTHOREF
  2

  9
$UCSORTHOVIEW
 70
         0
  9
$UCSORGTOP
 10
0.0
 20
0.0
 30
0.0
  9
$UCSORGBOTTOM
 10
0.0
 20
0.0
 30
0.0
  9
$UCSORGLEFT
 10
0.0
 20
0.0
 30
0.0
  9
$UCSORGRIGHT
 10
0.0
 20
0.0
 30
0.0
  9
$UCSORGFRONT
 10
0.0
 20
0.0
 30
0.0
  9
$UCSORGBACK
 10
0.0
 20
0.0
 30
0.0
  9
$PUCSBASE
  2

  9
$PUCSNAME
  2

  9
$PUCSORG
 10
0.0
 20
0.0
 30
0.0
  9
$PUCSXDIR
 10
1.0
 20
0.0
 30
0.0
  9
$PUCSYDIR
 10
0.0
 20
1.0
 30
0.0
  9
$PUCSORTHOREF
  2

  9
$PUCSORTHOVIEW
 70
         0
  9
$PUCSORGTOP
 10
0.0
 20
0.0
 30
0.0
  9
$PUCSORGBOTTOM
 10
0.0
 20
0.0
 30
0.0
  9
$PUCSORGLEFT
 10
0.0
 20
0.0
 30
0.0
  9
$PUCSORGRIGHT
 10
0.0
 20
0.0
 30
0.0
  9
$PUCSORGFRONT
 10
0.0
 20
0.0
 30
0.0
  9
$PUCSORGBACK
 10
0.0
 20
0.0
 30
0.0
  9
$USERI1
 70
         0
  9
$USERI2
 70
         0
  9
$USERI3
 70
         0
  9
$USERI4
 70
         0
  9
$USERI5
 70
         0
  9
$USERR1
 40
0.0
  9
$USERR2
 40
0.0
  9
$USERR3
 40
0.0
  9
$USERR4
 40
0.0
  9
$USERR5
 40
0.0
  9
$WORLDVIEW
 70
         1
  9
$SHADEDGE
 70
         3
  9
$SHADEDIF
 70
        70
  9
$TILEMODE
 70
         1
  9
$MAXACTVP
 70
        16
  9
$PINSBASE
 10
0.0
 20
0.0
 30
0.0
  9
$PLIMCHECK
 70
         0
  9
$PEXTMIN
 10
1.0000000000E+20
 20
1.0000000000E+20
 30
1.0000000000E+20
  9
$PEXTMAX
 10
-1.0000000000E+20
 20
-1.0000000000E+20
 30
-1.0000000000E+20
  9
$PLIMMIN
 10
0.0
 20
0.0
  9
$PLIMMAX
 10
12.0
 20
9.0
  9
$UNITMODE
 70
         0
  9
$VISRETAIN
 70
         0
  9
$PLINEGEN
 70
         1
  9
$PSLTSCALE
 70
         0
  9
$TREEDEPTH
 70
      3020
  9
$CMLSTYLE
  2
Standard
  9
$CMLJUST
 70
         0
  9
$CMLSCALE
 40
1.0
  9
$PROXYGRAPHICS
 70
         0
  9
$MEASUREMENT
 70
         0
  9
$CELWEIGHT
370
         0
  9
$ENDCAPS
280
         0
  9
$JOINSTYLE
280
         0
  9
$LWDISPLAY
290
         0
  9
$INSUNITS
 70
         0
  9
$HYPERLINKBASE
  1

  9
$STYLESHEET
  1

  9
$XEDIT
290
         1
  9
$CEPSNTYPE
380
         0
  9
$PSTYLEMODE
290
         1
  9
$FINGERPRINTGUID
  2

  9
$VERSIONGUID
  2

  9
$EXTNAMES
290
         1
  9
$PSVPSCALE
 40
0.0
  0
ENDSEC
  0
SECTION
  2
CLASSES
  0
CLASS
  1
LWPOLYLINE
  2
AcDbPolyline
  3
AutoCAD 2000
 90
        0
280
         0
281
         1
  0
CLASS
  1
IMAGE
  2
AcDbRasterImage
  3
ISM
 90
      127
280
         0
281
         1
  0
CLASS
  1
OLE2FRAME
  2
AcDbOle2Frame
  3
AutoCAD 2000
 90
        0
280
         0
281
         1
  0
CLASS
  1
HATCH
  2
AcDbHatch
  3
AutoCAD 2000
 90
        0
280
         0
281
         1
  0
CLASS
  1
DICTIONARYVAR
  2
AcDbDictionaryVar
  3
AutoCAD 2000
 90
        0
280
         0
281
         0
  0
CLASS
  1
RASTERVARIABLES
  2
AcDbRasterVariables
  3
ISM
 90
        0
280
         0
281
         0
  0
CLASS
  1
IMAGEDEF
  2
AcDbRasterImageDef
  3
ISM
 90
        0
280
         0
281
         0
  0
CLASS
  1
IMAGEDEF_REACTOR
  2
AcDbRasterImageDefReactor
  3
ISM
 90
        1
280
         0
281
         0
  0
CLASS
  1
IDBUFFER
  2
AcDbIdBuffer
  3
AutoCAD 2000
 90
        0
280
         0
281
         0
  0
CLASS
  1
SPATIAL_FILTER
  2
AcDbSpatialFilter
  3
AutoCAD 2000
 90
        0
280
         0
281
         0
  0
CLASS
  1
XRECORD
  2
AcDbXrecord
  3
AutoCAD 2000
 90
        0
280
         0
281
         0
  0
CLASS
  1
SORTENTSTABLE
  2
AcDbSortentsTable
  3
AutoCAD 2000
 90
        0
280
         0
281
         0
  0
CLASS
  1
LAYER_INDEX
  2
AcDbLayerIndex
  3
AutoCAD 2000
 90
        0
280
         0
281
         0
  0
CLASS
  1
SPATIAL_INDEX
  2
AcDbSpatialIndex
  3
AutoCAD 2000
 90
        0
280
         0
281
         0
  0
CLASS
  1
OBJECT_PTR
  2
CAseDLPNTableRecord
  3
"ASE-LPNTableRecord"
 90
        1
280
         0
281
         0
  0
CLASS
  1
LAYOUT
  2
AcDbLayout
  3
AutoCAD 2000
 90
        0
280
         0
281
         0
  0
CLASS
  1
PLOTSETTINGS
  2
AcDbPlotSettings
  3
AutoCAD 2000
 90
        0
280
         0
281
         0
  0
CLASS
  1
ACDBDICTIONARYWDFLT
  2
AcDbDictionaryWithDefault
  3
AutoCAD 2000
 90
        0
280
         0
281
         0
  0
CLASS
  1
ACDBPLACEHOLDER
  2
AcDbPlaceHolder
  3
AutoCAD 2000
 90
        0
280
         0
281
         0
  0
CLASS
  1
VBA_PROJECT
  2
AcDbVbaProject
  3
acadvba
 90
        0
280
         0
281
         0
  0
CLASS
  1
WIPEOUT
  2
AcDbWipeout
  3
WipeOut|AutoCAD Express Tool|expresstools@autodesk.com
 90
      127
280
         0
281
         1
  0
CLASS
  1
WIPEOUTVARIABLES
  2
AcDbWipeoutVariables
  3
WipeOut|AutoCAD Express Tool|expresstools@autodesk.com
 90
        0
280
         0
281
         0
  0
CLASS
  1
RTEXT
  2
RText
  3
RText|AutoCAD Express Tool|expresstools@autodesk.com
 90
        0
280
         0
281
         1
  0
CLASS
  1
ARCALIGNEDTEXT
  2
AcDbArcAlignedText
  3
ATEXT|AutoCAD Express Tool|expresstools@autodesk.com
 90
        0
280
         0
281
         1
  0
ENDSEC
  0
SECTION
  2
TABLES
  0
TABLE
  2
VPORT
  5
7
100
AcDbSymbolTable
 70
         1
  0
VPORT
  5
15
100
AcDbSymbolTableRecord
100
AcDbViewportTableRecord
  2
*ACTIVE
 70
         0
 10
0.0
 20
0.0
 11
1.0
 21
1.0
 12
210.0
 22
148.5
 13
0.0
 23
0.0
 14
1.0
 24
1.0
 15
0.0
 25
0.0
 16
0.0
 26
0.0
 36
1.0
 17
0.0
 27
0.0
 37
0.0
 40
297.0
 41
1.604229
 42
50.0
 43
0.0
 44
0.0
 50
0.0
 51
0.0
 71
         0
 72
       100
 73
         1
 74
         1
 75
         0
 76
         0
 77
         0
 78
         0
281
         0
 65
         0
110
0.0
120
0.0
130
0.0
111
1.0
121
0.0
131
0.0
112
0.0
122
1.0
132
0.0
345
0
346
0
 79
         0
146
0.0
  0
ENDTAB
  0
TABLE
  2
LTYPE
  5
4
100
AcDbSymbolTable
 70
         7
  0
LTYPE
  5
11
100
AcDbSymbolTableRecord
100
AcDbLinetypeTableRecord
  2
ByBlock
 70
        64
  3

 72
        65
 73
         0
 40
0.0
  0
LTYPE
  5
12
100
AcDbSymbolTableRecord
100
AcDbLinetypeTableRecord
  2
ByLayer
 70
        64
  3

 72
        65
 73
         0
 40
0.0
  0
LTYPE
  5
13
100
AcDbSymbolTableRecord
100
AcDbLinetypeTableRecord
  2
CONTINUOUS
 70
         0
  3
Solid line
 72
        65
 73
         0
 40
0.0
  0
LTYPE
  5
28
100
AcDbSymbolTableRecord
100
AcDbLinetypeTableRecord
  2
HIDDEN2
 70
        64
  3
_ _ _ _ _ _ _ _ _ _ _ _ _ _ _ _ _ _ _ _ _ _ _ _
 72
        65
 73
         2
 40
0.1875
 49
0.125
 74
         0
 49
-0.0625
 74
         0
  0
LTYPE
  5
29
100
AcDbSymbolTableRecord
100
AcDbLinetypeTableRecord
  2
CENTER2
 70
        64
  3
___ _ ___ _ ___ _ ___ _ ___ _ ___ _ ___ _ ___ _
 72
        65
 73
         4
 40
1.125
 49
0.75
 74
         0
 49
-0.125
 74
         0
 49
0.125
 74
         0
 49
-0.125
 74
         0
  0
LTYPE
  5
2A
100
AcDbSymbolTableRecord
100
AcDbLinetypeTableRecord
  2
PHANTOM2
 70
        64
  3
___ _ _ ___ _ _ ___ _ _ ___ _ _ ___ _ _ ___ _ _
 72
        65
 73
         6
 40
1.25
 49
0.625
 74
         0
 49
-0.125
 74
         0
 49
0.125
 74
         0
 49
-0.125
 74
         0
 49
0.125
 74
         0
 49
-0.125
 74
         0
  0
LTYPE
  5
2B
100
AcDbSymbolTableRecord
100
AcDbLinetypeTableRecord
  2
DOT2
 70
        64
  3
...............................................
 72
        65
 73
         2
 40
0.125
 49
0.0
 74
         0
 49
-0.125
 74
         0
  0
ENDTAB
  0
TABLE
  2
LAYER
  5
2
100
AcDbSymbolTable
 70
         5
  0
LAYER
  5
14
100
AcDbSymbolTableRecord
100
AcDbLayerTableRecord
  2
0
 70
         0
 62
         7
  6
CONTINUOUS
290
         1
370
        -3
390
1D
  0
LAYER
  5
2D
100
AcDbSymbolTableRecord
100
AcDbLayerTableRecord
  2
DEFAULT
 70
         0
 62
         7
  6
CONTINUOUS
290
         1
370
        -3
390
0
  0
LAYER
  5
2F
100
AcDbSymbolTableRecord
100
AcDbLayerTableRecord
  2
AUTO_-_HIDE
 70
         0
 62
         7
  6
CONTINUOUS
290
         1
370
        -3
390
0
  0
LAYER
  5
31
100
AcDbSymbolTableRecord
100
AcDbLayerTableRecord
  2
PREDEFINITO
 70
         0
 62
         7
  6
CONTINUOUS
290
         1
370
        -3
390
0
  0
LAYER
  5
48
100
AcDbSymbolTableRecord
100
AcDbLayerTableRecord
  2
PORTA
 70
         0
 62
         7
  6
CONTINUOUS
290
         1
370
        -3
390
0
  0
ENDTAB
  0
TABLE
  2
STYLE
  5
3
100
AcDbSymbolTable
 70
         5
  0
STYLE
  5
17
100
AcDbSymbolTableRecord
100
AcDbTextStyleTableRecord
  2
Standard
 70
         0
 40
0.0
 41
1.0
 50
0.0
 71
         0
 42
0.2
  3
txt
  4

  0
STYLE
  5
55
100
AcDbSymbolTableRecord
100
AcDbTextStyleTableRecord
  2
arial_ttf
 70
         0
 40
0.0
 41
1.0
 50
0.0
 71
         0
 42
0.2
  3
arial.ttf
  4

1001
ACAD
1000
Arial
1071
        2
  0
STYLE
  5
5E
100
AcDbSymbolTableRecord
100
AcDbTextStyleTableRecord
  2
semeca1_ttf
 70
         0
 40
0.0
 41
1.0
 50
0.0
 71
         0
 42
0.2
  3
semeca1.ttf
  4

1001
ACAD
1000
Solid Edge ANSI1 Symbols
1071
        2
  0
STYLE
  5
8D
100
AcDbSymbolTableRecord
100
AcDbTextStyleTableRecord
  2
arial_ttfB
 70
         0
 40
0.0
 41
1.0
 50
0.0
 71
         0
 42
0.2
  3
arial.ttf
  4

1001
ACAD
1000
Arial
1071
 33554434
  0
STYLE
  5
91
100
AcDbSymbolTableRecord
100
AcDbTextStyleTableRecord
  2
seiso_ttfB
 70
         0
 40
0.0
 41
1.0
 50
0.0
 71
         0
 42
0.2
  3
seiso.ttf
  4

1001
ACAD
1000
Solid Edge ISO
1071
 33554434
  0
ENDTAB
  0
TABLE
  2
VIEW
  5
5
100
AcDbSymbolTable
 70
         0
  0
ENDTAB
  0
TABLE
  2
UCS
  5
6
100
AcDbSymbolTable
 70
         0
  0
ENDTAB
  0
TABLE
  2
APPID
  5
8
100
AcDbSymbolTable
 70
         1
  0
APPID
  5
16
100
AcDbSymbolTableRecord
100
AcDbRegAppTableRecord
  2
ACAD
 70
         0
  0
ENDTAB
  0
TABLE
  2
DIMSTYLE
  5
9
100
AcDbSymbolTable
 70
         1
100
AcDbDimStyleTable
 71
         0
  0
DIMSTYLE
105
18
100
AcDbSymbolTableRecord
100
AcDbDimStyleTableRecord
  2
Standard
 70
         0
  3

  4

 40
1.0
 41
0.18
 42
0.0625
 43
0.38
 44
0.18
 45
0.0
 46
0.0
 47
0.0
 48
0.0
 71
         0
 72
         0
 73
         1
 74
         1
 75
         0
 76
         0
 77
         0
 78
         0
 79
         0
140
0.18
141
0.09
142
0.0
143
25.4
144
1.0
145
0.0
146
1.0
147
0.09
148
0.0
170
         0
171
         2
172
         0
173
         0
174
         0
175
         0
176
         0
177
         0
178
         0
179
         0
271
         4
272
         4
273
         2
274
         2
275
         0
276
         0
277
         2
278
        46
279
         0
280
         0
281
         0
282
         0
283
         1
284
         0
285
         0
286
         0
288
         0
289
         0
340
17
341
0
342
0
343
0
344
0
371
        -2
372
        -2
  0
ENDTAB
  0
TABLE
  2
BLOCK_RECORD
  5
1
100
AcDbSymbolTable
 70
        17
  0
BLOCK_RECORD
  5
A
100
AcDbSymbolTableRecord
100
AcDbBlockTableRecord
  2
*MODEL_SPACE
340
20
  0
BLOCK_RECORD
  5
B
100
AcDbSymbolTableRecord
100
AcDbBlockTableRecord
  2
*PAPER_SPACE
340
21
  0
BLOCK_RECORD
  5
4B
100
AcDbSymbolTableRecord
100
AcDbBlockTableRecord
  2
SE0
340
0
102
{BLKREFS
331
51
102
}
  0
BLOCK_RECORD
  5
4C
100
AcDbSymbolTableRecord
100
AcDbBlockTableRecord
  2
SE1
340
0
102
{BLKREFS
331
4D
102
}
  0
BLOCK_RECORD
  5
52
100
AcDbSymbolTableRecord
100
AcDbBlockTableRecord
  2
SE2
340
0
102
{BLKREFS
331
56
102
}
  0
BLOCK_RECORD
  5
57
100
AcDbSymbolTableRecord
100
AcDbBlockTableRecord
  2
SE3
340
0
102
{BLKREFS
331
5A
102
}
  0
BLOCK_RECORD
  5
5B
100
AcDbSymbolTableRecord
100
AcDbBlockTableRecord
  2
SE4
340
0
102
{BLKREFS
331
5F
102
}
  0
BLOCK_RECORD
  5
60
100
AcDbSymbolTableRecord
100
AcDbBlockTableRecord
  2
SE5
340
0
102
{BLKREFS
331
63
102
}
  0
BLOCK_RECORD
  5
64
100
AcDbSymbolTableRecord
100
AcDbBlockTableRecord
  2
SE6
340
0
102
{BLKREFS
331
6A
102
}
  0
BLOCK_RECORD
  5
65
100
AcDbSymbolTableRecord
100
AcDbBlockTableRecord
  2
SE7
340
0
102
{BLKREFS
331
66
102
}
  0
BLOCK_RECORD
  5
6B
100
AcDbSymbolTableRecord
100
AcDbBlockTableRecord
  2
SE8
340
0
102
{BLKREFS
331
6E
102
}
  0
BLOCK_RECORD
  5
88
100
AcDbSymbolTableRecord
100
AcDbBlockTableRecord
  2
SE9
340
0
102
{BLKREFS
331
89
102
}
  0
BLOCK_RECORD
  5
8B
100
AcDbSymbolTableRecord
100
AcDbBlockTableRecord
  2
SE10
340
0
102
{BLKREFS
331
8C
102
}
  0
BLOCK_RECORD
  5
90
100
AcDbSymbolTableRecord
100
AcDbBlockTableRecord
  2
SE11
340
0
102
{BLKREFS
331
92
102
}
  0
BLOCK_RECORD
  5
96
100
AcDbSymbolTableRecord
100
AcDbBlockTableRecord
  2
SE12
340
0
102
{BLKREFS
331
97
102
}
  0
BLOCK_RECORD
  5
9D
100
AcDbSymbolTableRecord
100
AcDbBlockTableRecord
  2
SE13
340
0
102
{BLKREFS
331
9E
102
}
  0
BLOCK_RECORD
  5
9F
100
AcDbSymbolTableRecord
100
AcDbBlockTableRecord
  2
SE14
340
0
102
{BLKREFS
331
A0
102
}
  0
BLOCK_RECORD
  5
A1
100
AcDbSymbolTableRecord
100
AcDbBlockTableRecord
  2
SE15
340
0
102
{BLKREFS
331
A2
102
}
  0
BLOCK_RECORD
  5
A3
100
AcDbSymbolTableRecord
100
AcDbBlockTableRecord
  2
SE16
340
0
102
{BLKREFS
331
A4
102
}
  0
ENDTAB
  0
ENDSEC
  0
SECTION
  2
BLOCKS
  0
BLOCK
  5
D
100
AcDbEntity
  8
0
390
0
100
AcDbBlockBegin
  2
*MODEL_SPACE
 70
         0
 10
0.0
 20
0.0
 30
0.0
  3
*MODEL_SPACE
  1

  0
ENDBLK
  5
E
100
AcDbEntity
  8
0
390
0
100
AcDbBlockEnd
  0
BLOCK
  5
F
100
AcDbEntity
 67
         1
  8
0
390
0
100
AcDbBlockBegin
  2
*PAPER_SPACE
 70
         0
 10
0.0
 20
0.0
 30
0.0
  3
*PAPER_SPACE
  1

  0
ENDBLK
  5
10
100
AcDbEntity
 67
         1
  8
0
390
0
100
AcDbBlockEnd
  0
BLOCK
  5
B3
100
AcDbEntity
  8
DEFAULT
370
         0
390
0
 62
         1
 48
0.0
100
AcDbBlockBegin
  2
SE0
 70
         0
 10
0.0
 20
0.0
 30
0.0
  3
SE0
  1

  0
ENDBLK
  5
B4
100
AcDbEntity
  8
DEFAULT
370
         0
390
0
 62
         1
 48
0.0
100
AcDbBlockEnd
  0
BLOCK
  5
A5
100
AcDbEntity
  8
DEFAULT
370
         0
390
0
 62
         1
 48
0.0
100
AcDbBlockBegin
  2
SE1
 70
         0
 10
0.0
 20
0.0
 30
0.0
  3
SE1
  1

  0
CIRCLE
  5
A6
100
AcDbEntity
  8
PORTA
370
         0
390
0
  6
CONTINUOUS
 62
         7
100
AcDbCircle
 10
115.3545089863
 20
148.2097555678
 30
0.0
 40
5.6
  0
LINE
  5
A7
100
AcDbEntity
  8
PORTA
370
         0
390
0
  6
CONTINUOUS
 62
         7
100
AcDbLine
 10
162.9545089863
 20
61.4097555678
 30
0.0
 11
94.3545089863
 21
61.4097555678
 31
0.0
  0
LINE
  5
A8
100
AcDbEntity
  8
PORTA
370
         0
390
0
  6
CONTINUOUS
 62
         7
100
AcDbLine
 10
94.3545089863
 20
271.4097555678
 30
0.0
 11
94.3545089863
 21
61.4097555678
 31
0.0
  0
LINE
  5
A9
100
AcDbEntity
  8
PORTA
370
         0
390
0
  6
CONTINUOUS
 62
         7
100
AcDbLine
 10
162.9545089863
 20
271.4097555678
 30
0.0
 11
94.3545089863
 21
271.4097555678
 31
0.0
  0
LINE
  5
AA
100
AcDbEntity
  8
PORTA
370
         0
390
0
  6
CONTINUOUS
 62
         7
100
AcDbLine
 10
93.6545089863
 20
271.4097555678
 30
0.0
 11
94.3545089863
 21
271.4097555678
 31
0.0
  0
LINE
  5
AB
100
AcDbEntity
  8
PORTA
370
         0
390
0
  6
CONTINUOUS
 62
         7
100
AcDbLine
 10
163.6545089863
 20
271.4097555678
 30
0.0
 11
163.6545089863
 21
61.4097555678
 31
0.0
  0
LINE
  5
AC
100
AcDbEntity
  8
PORTA
370
         0
390
0
  6
CONTINUOUS
 62
         7
100
AcDbLine
 10
162.9545089863
 20
271.4097555678
 30
0.0
 11
163.6545089863
 21
271.4097555678
 31
0.0
  0
LINE
  5
AD
100
AcDbEntity
  8
PORTA
370
         0
390
0
  6
CONTINUOUS
 62
         7
100
AcDbLine
 10
93.6545089863
 20
61.4097555678
 30
0.0
 11
93.6545089863
 21
271.4097555678
 31
0.0
  0
LINE
  5
AE
100
AcDbEntity
  8
PORTA
370
         0
390
0
  6
CONTINUOUS
 62
         7
100
AcDbLine
 10
163.6545089863
 20
61.4097555678
 30
0.0
 11
162.9545089863
 21
61.4097555678
 31
0.0
  0
LINE
  5
AF
100
AcDbEntity
  8
PORTA
370
         0
390
0
  6
CONTINUOUS
 62
         7
100
AcDbLine
 10
94.3545089863
 20
61.4097555678
 30
0.0
 11
93.6545089863
 21
61.4097555678
 31
0.0
  0
LINE
  5
B0
100
AcDbEntity
  8
PORTA
370
         0
390
0
  6
CONTINUOUS
 62
         7
100
AcDbLine
 10
162.9545089863
 20
61.4097555678
 30
0.0
 11
162.9545089863
 21
271.4097555678
 31
0.0
  0
CIRCLE
  5
B1
100
AcDbEntity
  8
PORTA
370
         0
390
0
  6
CONTINUOUS
 62
         7
100
AcDbCircle
 10
115.3545089863
 20
184.6097555678
 30
0.0
 40
5.6
  0
ENDBLK
  5
B2
100
AcDbEntity
  8
PORTA
370
         0
390
0
  6
CONTINUOUS
 62
         7
100
AcDbBlockEnd
  0
BLOCK
  5
B5
100
AcDbEntity
  8
DEFAULT
370
         0
390
0
 62
         1
 48
0.0
100
AcDbBlockBegin
  2
SE2
 70
         0
 10
0.0
 20
0.0
 30
0.0
  3
SE2
  1

  0
HATCH
  5
B6
100
AcDbEntity
  8
DEFAULT
390
0
  6
CONTINUOUS
 62
       136
100
AcDbHatch
 10
0.0
 20
0.0
 30
0.0
210
0.0
220
0.0
230
1.0
  2
SOLID
 70
         1
 71
         1
 91
        1
 92
        1
 93
        3
 72
         1
 10
88.654509098062405
 20
118.81679777188357
 11
93.654508986303696
 21
119.65013108659045
 72
         1
 10
93.654508986303696
 20
119.65013108659045
 11
88.654509098062405
 21
120.48346440129733
 72
         1
 10
88.654509098062405
 20
120.48346440129733
 11
88.654509098062405
 21
118.81679777188357
 97
        0
 75
         0
 76
         1
 98
        1
 10
0.0
 20
0.0
  0
HATCH
  5
B7
100
AcDbEntity
  8
DEFAULT
390
0
  6
CONTINUOUS
 62
       136
100
AcDbHatch
 10
0.0
 20
0.0
 30
0.0
210
0.0
220
0.0
230
1.0
  2
SOLID
 70
         1
 71
         1
 91
        1
 92
        1
 93
        3
 72
         1
 10
120.354508874545
 20
118.81679777188357
 11
115.35450898630371
 21
119.65013108659045
 72
         1
 10
115.35450898630371
 20
119.65013108659045
 11
120.354508874545
 21
120.48346440129733
 72
         1
 10
120.354508874545
 20
120.48346440129733
 11
120.354508874545
 21
118.81679777188357
 97
        0
 75
         0
 76
         1
 98
        1
 10
0.0
 20
0.0
  0
LINE
  5
B8
100
AcDbEntity
  8
DEFAULT
370
         0
390
0
  6
CONTINUOUS
 62
       136
100
AcDbLine
 10
115.3545089863
 20
182.1097556237
 30
0.0
 11
115.3545089863
 21
117.1501311425
 31
0.0
  0
LINE
  5
B9
100
AcDbEntity
  8
DEFAULT
370
         0
390
0
  6
CONTINUOUS
 62
       136
100
AcDbLine
 10
73.4908369414
 20
119.6501310866
 30
0.0
 11
125.3545091532
 21
119.6501310866
 31
0.0
  0
TEXT
  5
BA
100
AcDbEntity
  8
DEFAULT
370
         0
390
0
  6
CONTINUOUS
 62
       136
100
AcDbText
 10
75.2408374335
 20
120.9001310866
 30
0.0
 40
5.0
  1
31
  7
arial_ttf
 11
75.2408374335
 21
125.9001310866
 31
0.0
100
AcDbText
 73
         3
  0
ENDBLK
  5
BB
100
AcDbEntity
  8
DEFAULT
370
         0
390
0
  6
CONTINUOUS
 62
       136
100
AcDbBlockEnd
  0
BLOCK
  5
BC
100
AcDbEntity
  8
DEFAULT
370
         0
390
0
 62
         1
 48
0.0
100
AcDbBlockBegin
  2
SE3
 70
         0
 10
0.0
 20
0.0
 30
0.0
  3
SE3
  1

  0
HATCH
  5
BD
100
AcDbEntity
  8
DEFAULT
390
0
  6
CONTINUOUS
 62
       136
100
AcDbHatch
 10
0.0
 20
0.0
 30
0.0
210
0.0
220
0.0
230
1.0
  2
SOLID
 70
         1
 71
         1
 91
        1
 92
        1
 93
        3
 72
         1
 10
76.482236434002232
 20
153.20975545603292
 11
77.315569748709109
 21
148.20975556779163
 72
         1
 10
77.315569748709109
 20
148.20975556779163
 11
78.148903063415986
 21
153.20975545603292
 72
         1
 10
78.148903063415986
 20
153.20975545603292
 11
76.482236434002232
 21
153.20975545603292
 97
        0
 75
         0
 76
         1
 98
        1
 10
0.0
 20
0.0
  0
HATCH
  5
BE
100
AcDbEntity
  8
DEFAULT
390
0
  6
CONTINUOUS
 62
       136
100
AcDbHatch
 10
0.0
 20
0.0
 30
0.0
210
0.0
220
0.0
230
1.0
  2
SOLID
 70
         1
 71
         1
 91
        1
 92
        1
 93
        3
 72
         1
 10
76.482236434002232
 20
179.60975567955032
 11
77.315569748709109
 21
184.60975556779161
 72
         1
 10
77.315569748709109
 20
184.60975556779161
 11
78.148903063415986
 21
179.60975567955032
 72
         1
 10
78.148903063415986
 20
179.60975567955032
 11
76.482236434002232
 21
179.60975567955032
 97
        0
 75
         0
 76
         1
 98
        1
 10
0.0
 20
0.0
  0
LINE
  5
BF
100
AcDbEntity
  8
DEFAULT
370
         0
390
0
  6
CONTINUOUS
 62
       136
100
AcDbLine
 10
112.8545090422
 20
148.2097555678
 30
0.0
 11
74.8155698046
 21
148.2097555678
 31
0.0
  0
LINE
  5
C0
100
AcDbEntity
  8
DEFAULT
370
         0
390
0
  6
CONTINUOUS
 62
       136
100
AcDbLine
 10
112.8545090422
 20
184.6097555678
 30
0.0
 11
74.8155698046
 21
184.6097555678
 31
0.0
  0
LINE
  5
C1
100
AcDbEntity
  8
DEFAULT
370
         0
390
0
  6
CONTINUOUS
 62
       136
100
AcDbLine
 10
77.3155697487
 20
148.2097555678
 30
0.0
 11
77.3155697487
 21
184.6097570639
 31
0.0
  0
TEXT
  5
C2
100
AcDbEntity
  8
DEFAULT
370
         0
390
0
  6
CONTINUOUS
 62
       136
100
AcDbText
 10
76.0655697487
 20
162.6002325063
 30
0.0
 40
5.0
  1
52
 50
90.0
  7
arial_ttf
 11
71.0655697487
 21
162.6002325063
 31
0.0
100
AcDbText
 73
         3
  0
ENDBLK
  5
C3
100
AcDbEntity
  8
DEFAULT
370
         0
390
0
  6
CONTINUOUS
 62
       136
100
AcDbBlockEnd
  0
BLOCK
  5
C4
100
AcDbEntity
  8
DEFAULT
370
         0
390
0
 62
         1
 48
0.0
100
AcDbBlockBegin
  2
SE4
 70
         0
 10
0.0
 20
0.0
 30
0.0
  3
SE4
  1

  0
HATCH
  5
C5
100
AcDbEntity
  8
DEFAULT
390
0
  6
CONTINUOUS
 62
       136
100
AcDbHatch
 10
0.0
 20
0.0
 30
0.0
210
0.0
220
0.0
230
1.0
  2
SOLID
 70
         1
 71
         1
 91
        1
 92
        1
 93
        3
 72
         1
 10
201.83565627682162
 20
174.00975567955032
 11
201.00232296211473
 21
179.00975556779161
 72
         1
 10
201.00232296211473
 20
179.00975556779161
 11
200.16898964740784
 21
174.00975567955032
 72
         1
 10
200.16898964740784
 20
174.00975567955032
 11
201.83565627682162
 21
174.00975567955032
 97
        0
 75
         0
 76
         1
 98
        1
 10
0.0
 20
0.0
  0
HATCH
  5
C6
100
AcDbEntity
  8
DEFAULT
390
0
  6
CONTINUOUS
 62
       136
100
AcDbHatch
 10
0.0
 20
0.0
 30
0.0
210
0.0
220
0.0
230
1.0
  2
SOLID
 70
         1
 71
         1
 91
        1
 92
        1
 93
        3
 72
         1
 10
201.83565627682162
 20
195.20975545603289
 11
201.00232296211473
 21
190.2097555677916
 72
         1
 10
201.00232296211473
 20
190.2097555677916
 11
200.16898964740784
 21
195.20975545603289
 72
         1
 10
200.16898964740784
 20
195.20975545603289
 11
201.83565627682162
 21
195.20975545603289
 97
        0
 75
         0
 76
         1
 98
        1
 10
0.0
 20
0.0
  0
LINE
  5
C7
100
AcDbEntity
  8
DEFAULT
370
         0
390
0
  6
CONTINUOUS
 62
       136
100
AcDbLine
 10
117.8545089304
 20
179.0097555678
 30
0.0
 11
203.5023229062
 21
179.0097555678
 31
0.0
  0
LINE
  5
C8
100
AcDbEntity
  8
DEFAULT
370
         0
390
0
  6
CONTINUOUS
 62
       136
100
AcDbLine
 10
117.8545089304
 20
190.2097555678
 30
0.0
 11
203.5023229062
 21
190.2097555678
 31
0.0
  0
LINE
  5
C9
100
AcDbEntity
  8
DEFAULT
370
         0
390
0
  6
CONTINUOUS
 62
       136
100
AcDbLine
 10
201.0023229621
 20
169.0097557913
 30
0.0
 11
201.0023229621
 21
228.0879630308
 31
0.0
  0
TEXT
  5
CA
100
AcDbEntity
  8
DEFAULT
370
         0
390
0
  6
CONTINUOUS
 62
       136
100
AcDbText
 10
199.7523229621
 20
210.0171592544
 30
0.0
 40
5.0
  1
O
 50
90.0
  7
semeca1_ttf
 11
194.7523229621
 21
210.0171592544
 31
0.0
100
AcDbText
 73
         3
  0
TEXT
  5
CB
100
AcDbEntity
  8
DEFAULT
370
         0
390
0
  6
CONTINUOUS
 62
       136
100
AcDbText
 10
199.7523229621
 20
218.7189136404
 30
0.0
 40
5.0
  1
16
 50
90.0
  7
arial_ttf
 11
194.7523229621
 21
218.7189136404
 31
0.0
100
AcDbText
 73
         3
  0
ENDBLK
  5
CC
100
AcDbEntity
  8
DEFAULT
370
         0
390
0
  6
CONTINUOUS
 62
       136
100
AcDbBlockEnd
  0
BLOCK
  5
CD
100
AcDbEntity
  8
DEFAULT
370
         0
390
0
 62
         1
 48
0.0
100
AcDbBlockBegin
  2
SE5
 70
         0
 10
0.0
 20
0.0
 30
0.0
  3
SE5
  1

  0
HATCH
  5
CE
100
AcDbEntity
  8
DEFAULT
390
0
  6
CONTINUOUS
 62
       136
100
AcDbHatch
 10
0.0
 20
0.0
 30
0.0
210
0.0
220
0.0
230
1.0
  2
SOLID
 70
         1
 71
         1
 91
        1
 92
        1
 93
        3
 72
         1
 10
201.83565627682162
 20
137.60975567955035
 11
201.00232296211473
 21
142.60975556779164
 72
         1
 10
201.00232296211473
 20
142.60975556779164
 11
200.16898964740784
 21
137.60975567955035
 72
         1
 10
200.16898964740784
 20
137.60975567955035
 11
201.83565627682162
 21
137.60975567955035
 97
        0
 75
         0
 76
         1
 98
        1
 10
0.0
 20
0.0
  0
HATCH
  5
CF
100
AcDbEntity
  8
DEFAULT
390
0
  6
CONTINUOUS
 62
       136
100
AcDbHatch
 10
0.0
 20
0.0
 30
0.0
210
0.0
220
0.0
230
1.0
  2
SOLID
 70
         1
 71
         1
 91
        1
 92
        1
 93
        3
 72
         1
 10
201.83565627682162
 20
158.80975545603289
 11
201.00232296211473
 21
153.8097555677916
 72
         1
 10
201.00232296211473
 20
153.8097555677916
 11
200.16898964740784
 21
158.80975545603289
 72
         1
 10
200.16898964740784
 20
158.80975545603289
 11
201.83565627682162
 21
158.80975545603289
 97
        0
 75
         0
 76
         1
 98
        1
 10
0.0
 20
0.0
  0
LINE
  5
D0
100
AcDbEntity
  8
DEFAULT
370
         0
390
0
  6
CONTINUOUS
 62
       136
100
AcDbLine
 10
117.8545089304
 20
142.6097555678
 30
0.0
 11
203.5023229062
 21
142.6097555678
 31
0.0
  0
LINE
  5
D1
100
AcDbEntity
  8
DEFAULT
370
         0
390
0
  6
CONTINUOUS
 62
       136
100
AcDbLine
 10
117.8545089304
 20
153.8097555678
 30
0.0
 11
203.5023229062
 21
153.8097555678
 31
0.0
  0
LINE
  5
D2
100
AcDbEntity
  8
DEFAULT
370
         0
390
0
  6
CONTINUOUS
 62
       136
100
AcDbLine
 10
201.0023229621
 20
114.9130734276
 30
0.0
 11
201.0023229621
 21
163.8097549449
 31
0.0
  0
TEXT
  5
D3
100
AcDbEntity
  8
DEFAULT
370
         0
390
0
  6
CONTINUOUS
 62
       136
100
AcDbText
 10
199.7523229621
 20
116.6630742676
 30
0.0
 40
5.0
  1
O
 50
90.0
  7
semeca1_ttf
 11
194.7523229621
 21
116.6630742676
 31
0.0
100
AcDbText
 73
         3
  0
TEXT
  5
D4
100
AcDbEntity
  8
DEFAULT
370
         0
390
0
  6
CONTINUOUS
 62
       136
100
AcDbText
 10
199.7523229621
 20
125.3648286536
 30
0.0
 40
5.0
  1
16
 50
90.0
  7
arial_ttf
 11
194.7523229621
 21
125.3648286536
 31
0.0
100
AcDbText
 73
         3
  0
ENDBLK
  5
D5
100
AcDbEntity
  8
DEFAULT
370
         0
390
0
  6
CONTINUOUS
 62
       136
100
AcDbBlockEnd
  0
BLOCK
  5
E2
100
AcDbEntity
  8
DEFAULT
370
         0
390
0
 62
         1
 48
0.0
100
AcDbBlockBegin
  2
SE6
 70
         0
 10
0.0
 20
0.0
 30
0.0
  3
SE6
  1

  0
ENDBLK
  5
E3
100
AcDbEntity
  8
DEFAULT
370
         0
390
0
 62
         1
 48
0.0
100
AcDbBlockEnd
  0
BLOCK
  5
D6
100
AcDbEntity
  8
DEFAULT
370
         0
390
0
 62
         1
 48
0.0
100
AcDbBlockBegin
  2
SE7
 70
         0
 10
0.0
 20
0.0
 30
0.0
  3
SE7
  1

  0
LINE
  5
D7
100
AcDbEntity
  8
PORTA
370
         0
390
0
  6
HIDDEN2
 62
         7
100
AcDbLine
 10
109.7545089863
 20
37.0473234883
 30
0.0
 11
109.7545089863
 21
30.0473234883
 31
0.0
  0
LINE
  5
D8
100
AcDbEntity
  8
PORTA
370
         0
390
0
  6
CONTINUOUS
 62
         7
100
AcDbLine
 10
94.3545089863
 20
37.0473234883
 30
0.0
 11
162.9545089863
 21
37.0473234883
 31
0.0
  0
LINE
  5
D9
100
AcDbEntity
  8
PORTA
370
         0
390
0
  6
HIDDEN2
 62
         7
100
AcDbLine
 10
120.9545089863
 20
30.0473234883
 30
0.0
 11
120.9545089863
 21
37.0473234883
 31
0.0
  0
LINE
  5
DA
100
AcDbEntity
  8
PORTA
370
         0
390
0
  6
CONTINUOUS
 62
         7
100
AcDbLine
 10
94.3545089863
 20
37.0473234883
 30
0.0
 11
93.6545089863
 21
36.3473234883
 31
0.0
  0
LINE
  5
DB
100
AcDbEntity
  8
PORTA
370
         0
390
0
  6
CONTINUOUS
 62
         7
100
AcDbLine
 10
93.6545089863
 20
30.7473234883
 30
0.0
 11
94.3545089863
 21
30.0473234883
 31
0.0
  0
LINE
  5
DC
100
AcDbEntity
  8
PORTA
370
         0
390
0
  6
CONTINUOUS
 62
         7
100
AcDbLine
 10
162.9545089863
 20
30.0473234883
 30
0.0
 11
163.6545089863
 21
30.7473234883
 31
0.0
  0
LINE
  5
DD
100
AcDbEntity
  8
PORTA
370
         0
390
0
  6
CONTINUOUS
 62
         7
100
AcDbLine
 10
163.6545089863
 20
36.3473234883
 30
0.0
 11
162.9545089863
 21
37.0473234883
 31
0.0
  0
LINE
  5
DE
100
AcDbEntity
  8
PORTA
370
         0
390
0
  6
CONTINUOUS
 62
         7
100
AcDbLine
 10
162.9545089863
 20
30.0473234883
 30
0.0
 11
94.3545089863
 21
30.0473234883
 31
0.0
  0
LINE
  5
DF
100
AcDbEntity
  8
PORTA
370
         0
390
0
  6
CONTINUOUS
 62
         7
100
AcDbLine
 10
93.6545089863
 20
30.7473234883
 30
0.0
 11
93.6545089863
 21
36.3473234883
 31
0.0
  0
LINE
  5
E0
100
AcDbEntity
  8
PORTA
370
         0
390
0
  6
CONTINUOUS
 62
         7
100
AcDbLine
 10
163.6545089863
 20
36.3473234883
 30
0.0
 11
163.6545089863
 21
30.7473234883
 31
0.0
  0
ENDBLK
  5
E1
100
AcDbEntity
  8
PORTA
370
         0
390
0
  6
CONTINUOUS
 62
         7
100
AcDbBlockEnd
  0
BLOCK
  5
E4
100
AcDbEntity
  8
DEFAULT
370
         0
390
0
 62
         1
 48
0.0
100
AcDbBlockBegin
  2
SE8
 70
         0
 10
0.0
 20
0.0
 30
0.0
  3
SE8
  1

  0
HATCH
  5
E5
100
AcDbEntity
  8
DEFAULT
390
0
  6
CONTINUOUS
 62
       136
100
AcDbHatch
 10
0.0
 20
0.0
 30
0.0
210
0.0
220
0.0
230
1.0
  2
SOLID
 70
         1
 71
         1
 91
        1
 92
        1
 93
        3
 72
         1
 10
70.880017940183009
 20
25.047323600013339
 11
71.713351254889886
 21
30.04732348825463
 72
         1
 10
71.713351254889886
 20
30.04732348825463
 11
72.546684569596763
 21
25.047323600013339
 72
         1
 10
72.546684569596763
 20
25.047323600013339
 11
70.880017940183009
 21
25.047323600013339
 97
        0
 75
         0
 76
         1
 98
        1
 10
0.0
 20
0.0
  0
HATCH
  5
E6
100
AcDbEntity
  8
DEFAULT
390
0
  6
CONTINUOUS
 62
       136
100
AcDbHatch
 10
0.0
 20
0.0
 30
0.0
210
0.0
220
0.0
230
1.0
  2
SOLID
 70
         1
 71
         1
 91
        1
 92
        1
 93
        3
 72
         1
 10
70.880017940183009
 20
42.047323376495932
 11
71.713351254889886
 21
37.047323488254641
 72
         1
 10
71.713351254889886
 20
37.047323488254641
 11
72.546684569596763
 21
42.047323376495932
 72
         1
 10
72.546684569596763
 20
42.047323376495932
 11
70.880017940183009
 21
42.047323376495932
 97
        0
 75
         0
 76
         1
 98
        1
 10
0.0
 20
0.0
  0
LINE
  5
E7
100
AcDbEntity
  8
DEFAULT
370
         0
390
0
  6
CONTINUOUS
 62
       136
100
AcDbLine
 10
91.8545090422
 20
30.0473234883
 30
0.0
 11
69.2133513108
 21
30.0473234883
 31
0.0
  0
LINE
  5
E8
100
AcDbEntity
  8
DEFAULT
370
         0
390
0
  6
CONTINUOUS
 62
       136
100
AcDbLine
 10
91.8545090422
 20
37.0473234883
 30
0.0
 11
69.2133513108
 21
37.0473234883
 31
0.0
  0
LINE
  5
E9
100
AcDbEntity
  8
DEFAULT
370
         0
390
0
  6
CONTINUOUS
 62
       136
100
AcDbLine
 10
71.7133512549
 20
20.0473237118
 30
0.0
 11
71.7133512549
 21
55.2249959936
 31
0.0
  0
TEXT
  5
EA
100
AcDbEntity
  8
DEFAULT
370
         0
390
0
  6
CONTINUOUS
 62
       136
100
AcDbText
 10
70.4633512549
 20
45.8559488138
 30
0.0
 40
5.0
  1
10
 50
90.0
  7
arial_ttf
 11
65.4633512549
 21
45.8559488138
 31
0.0
100
AcDbText
 73
         3
  0
ENDBLK
  5
EB
100
AcDbEntity
  8
DEFAULT
370
         0
390
0
  6
CONTINUOUS
 62
       136
100
AcDbBlockEnd
  0
BLOCK
  5
EC
100
AcDbEntity
  8
DEFAULT
370
         0
390
0
 62
         1
 48
0.0
100
AcDbBlockBegin
  2
SE9
 70
         0
 10
0.0
 20
0.0
 30
0.0
  3
SE9
  1

  0
TEXT
  5
ED
100
AcDbEntity
  8
0
370
         0
390
0
  6
CONTINUOUS
 62
       136
100
AcDbText
 10
290.8662835526
 20
50.8957797331
 30
0.0
 40
3.048
  1
pfab
  7
arial_ttf
 11
290.8662835526
 21
53.9437797331
 31
0.0
100
AcDbText
 73
         3
  0
ENDBLK
  5
EE
100
AcDbEntity
  8
0
370
         0
390
0
  6
CONTINUOUS
 62
       136
100
AcDbBlockEnd
  0
BLOCK
  5
EF
100
AcDbEntity
  8
DEFAULT
370
         0
390
0
 62
         1
 48
0.0
100
AcDbBlockBegin
  2
SE10
 70
         0
 10
0.0
 20
0.0
 30
0.0
  3
SE10
  1

  0
TEXT
  5
F0
100
AcDbEntity
  8
0
370
         0
390
0
  6
CONTINUOUS
 62
       136
100
AcDbText
 10
309.924
 20
50.7035
 30
0.0
 40
3.048
  1
18/06/12
  7
arial_ttf
 11
309.924
 21
53.7515
 31
0.0
100
AcDbText
 73
         3
  0
ENDBLK
  5
F1
100
AcDbEntity
  8
0
370
         0
390
0
  6
CONTINUOUS
 62
       136
100
AcDbBlockEnd
  0
BLOCK
  5
F2
100
AcDbEntity
  8
DEFAULT
370
         0
390
0
 62
         1
 48
0.0
100
AcDbBlockBegin
  2
SE11
 70
         0
 10
0.0
 20
0.0
 30
0.0
  3
SE11
  1

  0
TEXT
  5
F3
100
AcDbEntity
  8
0
370
         0
390
0
  6
CONTINUOUS
 62
       136
100
AcDbText
 10
369.6890454545
 20
37.1145
 30
0.0
 40
3.048
  1
 
  7
seiso_ttfB
 11
369.6890454545
 21
40.1625
 31
0.0
100
AcDbText
 73
         3
  0
ENDBLK
  5
F4
100
AcDbEntity
  8
0
370
         0
390
0
  6
CONTINUOUS
 62
       136
100
AcDbBlockEnd
  0
BLOCK
  5
F5
100
AcDbEntity
  8
DEFAULT
370
         0
390
0
 62
         1
 48
0.0
100
AcDbBlockBegin
  2
SE12
 70
         0
 10
0.0
 20
0.0
 30
0.0
  3
SE12
  1

  0
TEXT
  5
F6
100
AcDbEntity
  8
0
370
         0
390
0
  6
CONTINUOUS
 62
       136
100
AcDbText
 10
369.6255454545
 20
24.6685
 30
0.0
 40
3.048
  1
 
  7
seiso_ttfB
 11
369.6255454545
 21
27.7165
 31
0.0
100
AcDbText
 73
         3
  0
ENDBLK
  5
F7
100
AcDbEntity
  8
0
370
         0
390
0
  6
CONTINUOUS
 62
       136
100
AcDbBlockEnd
  0
BLOCK
  5
F8
100
AcDbEntity
  8
DEFAULT
370
         0
390
0
 62
         1
 48
0.0
100
AcDbBlockBegin
  2
SE13
 70
         0
 10
0.0
 20
0.0
 30
0.0
  3
SE13
  1

  0
TEXT
  5
F9
100
AcDbEntity
  8
0
370
         0
390
0
  6
CONTINUOUS
 62
       136
100
AcDbText
 10
290.8902915568
 20
45.3380260628
 30
0.0
 40
3.048
  1
pfab
  7
arial_ttf
 11
290.8902915568
 21
48.3860260628
 31
0.0
100
AcDbText
 73
         3
  0
ENDBLK
  5
FA
100
AcDbEntity
  8
0
370
         0
390
0
  6
CONTINUOUS
 62
       136
100
AcDbBlockEnd
  0
BLOCK
  5
FB
100
AcDbEntity
  8
DEFAULT
370
         0
390
0
 62
         1
 48
0.0
100
AcDbBlockBegin
  2
SE14
 70
         0
 10
0.0
 20
0.0
 30
0.0
  3
SE14
  1

  0
TEXT
  5
FC
100
AcDbEntity
  8
0
370
         0
390
0
  6
CONTINUOUS
 62
       136
100
AcDbText
 10
309.9693516491
 20
44.8764358993
 30
0.0
 40
3.048
  1
12/09/12
  7
arial_ttf
 11
309.9693516491
 21
47.9244358993
 31
0.0
100
AcDbText
 73
         3
  0
ENDBLK
  5
FD
100
AcDbEntity
  8
0
370
         0
390
0
  6
CONTINUOUS
 62
       136
100
AcDbBlockEnd
  0
BLOCK
  5
FE
100
AcDbEntity
  8
DEFAULT
370
         0
390
0
 62
         1
 48
0.0
100
AcDbBlockBegin
  2
SE15
 70
         0
 10
0.0
 20
0.0
 30
0.0
  3
SE15
  1

  0
TEXT
  5
FF
100
AcDbEntity
  8
0
370
         0
390
0
  6
CONTINUOUS
 62
       136
100
AcDbText
 10
290.5825647811
 20
39.4912173249
 30
0.0
 40
3.048
  1
pfab
  7
arial_ttf
 11
290.5825647811
 21
42.5392173249
 31
0.0
100
AcDbText
 73
         3
  0
ENDBLK
  5
100
100
AcDbEntity
  8
0
370
         0
390
0
  6
CONTINUOUS
 62
       136
100
AcDbBlockEnd
  0
BLOCK
  5
101
100
AcDbEntity
  8
DEFAULT
370
         0
390
0
 62
         1
 48
0.0
100
AcDbBlockBegin
  2
SE16
 70
         0
 10
0.0
 20
0.0
 30
0.0
  3
SE16
  1

  0
TEXT
  5
102
100
AcDbEntity
  8
0
370
         0
390
0
  6
CONTINUOUS
 62
       136
100
AcDbText
 10
309.6616248735
 20
38.7219003857
 30
0.0
 40
3.048
  1
25/02/13
  7
arial_ttf
 11
309.6616248735
 21
41.7699003857
 31
0.0
100
AcDbText
 73
         3
  0
ENDBLK
  5
103
100
AcDbEntity
  8
0
370
         0
390
0
  6
CONTINUOUS
 62
       136
100
AcDbBlockEnd
  0
ENDSEC
  0
SECTION
  2
ENTITIES
  0
HATCH
  5
49
100
AcDbEntity
  8
0
390
0
  6
CONTINUOUS
 62
         7
100
AcDbHatch
 10
0.0
 20
0.0
 30
0.0
210
0.0
220
0.0
230
1.0
  2
LINE
 70
         0
 71
         1
 91
        1
 92
        1
 93
        6
 72
         1
 10
109.7545089863037
 20
37.047323488254634
 11
109.7545089863037
 21
30.04732348825463
 72
         1
 10
109.7545089863037
 20
30.04732348825463
 11
94.354508986303713
 21
30.04732348825463
 72
         1
 10
94.354508986303728
 20
30.04732348825463
 11
93.654508986303711
 21
30.747323488254636
 72
         1
 10
93.654508986303696
 20
30.747323488254633
 11
93.654508986303696
 21
36.347323488254638
 72
         1
 10
93.654508986303696
 20
36.347323488254631
 11
94.354508986303699
 21
37.047323488254634
 72
         1
 10
94.354508986303713
 20
37.047323488254641
 11
109.7545089863037
 21
37.047323488254641
 97
        0
 75
         0
 76
         1
 52
45.0
 41
16.0
 77
         0
 78
         1
 53
45.0
 43
0.0
 44
0.0
 45
-1.4142135623730949
 46
1.4142135623730951
 79
         0
 98
        1
 10
0.0
 20
0.0
  0
HATCH
  5
4A
100
AcDbEntity
  8
0
390
0
  6
CONTINUOUS
 62
         7
100
AcDbHatch
 10
0.0
 20
0.0
 30
0.0
210
0.0
220
0.0
230
1.0
  2
LINE
 70
         0
 71
         1
 91
        1
 92
        1
 93
        6
 72
         1
 10
162.95450898630369
 20
37.047323488254641
 11
163.65450898630371
 21
36.347323488254645
 72
         1
 10
163.65450898630371
 20
36.347323488254638
 11
163.65450898630371
 21
30.747323488254636
 72
         1
 10
163.65450898630371
 20
30.74732348825464
 11
162.95450898630369
 21
30.047323488254634
 72
         1
 10
162.95450898630369
 20
30.047323488254637
 11
120.95450898630369
 21
30.047323488254634
 72
         1
 10
120.95450898630371
 20
30.047323488254634
 11
120.95450898630371
 21
37.047323488254641
 72
         1
 10
120.95450898630371
 20
37.047323488254641
 11
162.95450898630372
 21
37.047323488254648
 97
        0
 75
         0
 76
         1
 52
45.0
 41
16.0
 77
         0
 78
         1
 53
45.0
 43
0.0
 44
0.0
 45
-1.4142135623730949
 46
1.4142135623730951
 79
         0
 98
        1
 10
0.0
 20
0.0
  0
INSERT
  5
4D
102
{ACAD_XDICTIONARY
360
4E
102
}
100
AcDbEntity
  8
DEFAULT
370
         0
390
0
 62
         0
 48
0.0
100
AcDbBlockReference
  2
SE1
 10
0.0
 20
0.0
 30
0.0
  0
INSERT
  5
51
100
AcDbEntity
  8
DEFAULT
370
         0
390
0
 62
         0
 48
0.0
100
AcDbBlockReference
  2
SE0
 10
0.0
 20
0.0
 30
0.0
  0
INSERT
  5
56
100
AcDbEntity
  8
DEFAULT
370
         0
390
0
 62
         0
 48
0.0
100
AcDbBlockReference
  2
SE2
 10
0.0
 20
0.0
 30
0.0
  0
INSERT
  5
5A
100
AcDbEntity
  8
DEFAULT
370
         0
390
0
 62
         0
 48
0.0
100
AcDbBlockReference
  2
SE3
 10
0.0
 20
0.0
 30
0.0
  0
INSERT
  5
5F
100
AcDbEntity
  8
DEFAULT
370
         0
390
0
 62
         0
 48
0.0
100
AcDbBlockReference
  2
SE4
 10
0.0
 20
0.0
 30
0.0
  0
INSERT
  5
63
100
AcDbEntity
  8
DEFAULT
370
         0
390
0
 62
         0
 48
0.0
100
AcDbBlockReference
  2
SE5
 10
0.0
 20
0.0
 30
0.0
  0
INSERT
  5
66
102
{ACAD_XDICTIONARY
360
67
102
}
100
AcDbEntity
  8
DEFAULT
370
         0
390
0
 62
         0
 48
0.0
100
AcDbBlockReference
  2
SE7
 10
0.0
 20
0.0
 30
0.0
  0
INSERT
  5
6A
100
AcDbEntity
  8
DEFAULT
370
         0
390
0
 62
         0
 48
0.0
100
AcDbBlockReference
  2
SE6
 10
0.0
 20
0.0
 30
0.0
  0
INSERT
  5
6E
100
AcDbEntity
  8
DEFAULT
370
         0
390
0
 62
         0
 48
0.0
100
AcDbBlockReference
  2
SE8
 10
0.0
 20
0.0
 30
0.0
  0
LINE
  5
6F
100
AcDbEntity
  8
DEFAULT
370
         0
390
0
  6
CONTINUOUS
 62
         7
100
AcDbLine
 10
10.0
 20
10.0
 30
0.0
 11
410.0
 21
10.0
 31
0.0
  0
LINE
  5
70
100
AcDbEntity
  8
DEFAULT
370
         0
390
0
  6
CONTINUOUS
 62
         7
100
AcDbLine
 10
410.0
 20
10.0
 30
0.0
 11
410.0
 21
287.0
 31
0.0
  0
LINE
  5
71
100
AcDbEntity
  8
DEFAULT
370
         0
390
0
  6
CONTINUOUS
 62
         7
100
AcDbLine
 10
410.0
 20
287.0
 30
0.0
 11
10.0
 21
287.0
 31
0.0
  0
LINE
  5
72
100
AcDbEntity
  8
DEFAULT
370
         0
390
0
  6
CONTINUOUS
 62
         7
100
AcDbLine
 10
10.0
 20
287.0
 30
0.0
 11
10.0
 21
10.0
 31
0.0
  0
LINE
  5
73
100
AcDbEntity
  8
DEFAULT
370
         0
390
0
  6
CONTINUOUS
 62
         7
100
AcDbLine
 10
267.125
 20
10.0
 30
0.0
 11
267.125
 21
60.8
 31
0.0
  0
LINE
  5
74
100
AcDbEntity
  8
DEFAULT
370
         0
390
0
  6
CONTINUOUS
 62
         7
100
AcDbLine
 10
289.35
 20
32.225
 30
0.0
 11
289.35
 21
60.8
 31
0.0
  0
LINE
  5
75
100
AcDbEntity
  8
DEFAULT
370
         0
390
0
  6
CONTINUOUS
 62
         7
100
AcDbLine
 10
308.4
 20
32.225
 30
0.0
 11
308.4
 21
60.8
 31
0.0
  0
LINE
  5
76
100
AcDbEntity
  8
DEFAULT
370
         0
390
0
  6
CONTINUOUS
 62
         7
100
AcDbLine
 10
330.625
 20
10.0
 30
0.0
 11
330.625
 21
60.8
 31
0.0
  0
LINE
  5
77
100
AcDbEntity
  8
DEFAULT
370
         0
390
0
  6
CONTINUOUS
 62
         7
100
AcDbLine
 10
340.15
 20
22.7
 30
0.0
 11
340.15
 21
32.098
 31
0.0
  0
LINE
  5
78
100
AcDbEntity
  8
DEFAULT
370
         0
390
0
  6
CONTINUOUS
 62
         7
100
AcDbLine
 10
352.85
 20
10.0
 30
0.0
 11
352.85
 21
16.35
 31
0.0
  0
LINE
  5
79
100
AcDbEntity
  8
DEFAULT
370
         0
390
0
  6
CONTINUOUS
 62
         7
100
AcDbLine
 10
378.25
 20
10.0
 30
0.0
 11
378.25
 21
16.35
 31
0.0
  0
LINE
  5
7A
100
AcDbEntity
  8
DEFAULT
370
         0
390
0
  6
CONTINUOUS
 62
         7
100
AcDbLine
 10
400.348
 20
22.7
 30
0.0
 11
400.348
 21
32.098
 31
0.0
  0
LINE
  5
7B
100
AcDbEntity
  8
DEFAULT
370
         0
390
0
  6
CONTINUOUS
 62
         7
100
AcDbLine
 10
267.125
 20
60.8
 30
0.0
 11
410.0
 21
60.8
 31
0.0
  0
LINE
  5
7C
100
AcDbEntity
  8
DEFAULT
370
         0
390
0
  6
CONTINUOUS
 62
         7
100
AcDbLine
 10
267.125
 20
55.085
 30
0.0
 11
330.625
 21
55.085
 31
0.0
  0
LINE
  5
7D
100
AcDbEntity
  8
DEFAULT
370
         0
390
0
  6
CONTINUOUS
 62
         7
100
AcDbLine
 10
267.125
 20
49.37
 30
0.0
 11
330.625
 21
49.37
 31
0.0
  0
LINE
  5
7E
100
AcDbEntity
  8
DEFAULT
370
         0
390
0
  6
CONTINUOUS
 62
         7
100
AcDbLine
 10
330.625
 20
45.052
 30
0.0
 11
410.0
 21
45.052
 31
0.0
  0
LINE
  5
7F
100
AcDbEntity
  8
DEFAULT
370
         0
390
0
  6
CONTINUOUS
 62
         7
100
AcDbLine
 10
267.125
 20
43.655
 30
0.0
 11
330.625
 21
43.655
 31
0.0
  0
LINE
  5
80
100
AcDbEntity
  8
DEFAULT
370
         0
390
0
  6
CONTINUOUS
 62
         7
100
AcDbLine
 10
267.125
 20
37.7861366122
 30
0.0
 11
330.625
 21
37.94
 31
0.0
  0
LINE
  5
81
100
AcDbEntity
  8
DEFAULT
370
         0
390
0
  6
CONTINUOUS
 62
         7
100
AcDbLine
 10
267.125
 20
32.225
 30
0.0
 11
410.0
 21
32.225
 31
0.0
  0
LINE
  5
82
100
AcDbEntity
  8
DEFAULT
370
         0
390
0
  6
CONTINUOUS
 62
         7
100
AcDbLine
 10
330.625
 20
22.7
 30
0.0
 11
410.0
 21
22.7
 31
0.0
  0
LINE
  5
83
100
AcDbEntity
  8
DEFAULT
370
         0
390
0
  6
CONTINUOUS
 62
         7
100
AcDbLine
 10
330.625
 20
16.35
 30
0.0
 11
410.0
 21
16.35
 31
0.0
  0
TEXT
  5
84
100
AcDbEntity
  8
DEFAULT
370
         0
390
0
  6
CONTINUOUS
 62
         7
100
AcDbText
 10
268.649
 20
50.6560714286
 30
0.0
 40
3.0
  1
Creato
  7
arial_ttf
 11
268.649
 21
53.6560714286
 31
0.0
100
AcDbText
 73
         3
  0
TEXT
  5
85
100
AcDbEntity
  8
DEFAULT
370
         0
390
0
  6
CONTINUOUS
 62
         7
100
AcDbText
 10
268.649
 20
44.9410714286
 30
0.0
 40
3.0
  1
Modificato
  7
arial_ttf
 11
268.649
 21
47.9410714286
 31
0.0
100
AcDbText
 73
         3
  0
TEXT
  5
86
100
AcDbEntity
  8
DEFAULT
370
         0
390
0
  6
CONTINUOUS
 62
         7
100
AcDbText
 10
268.3412732243
 20
39.1129074561
 30
0.0
 40
3.0
  1
Stampato
  7
arial_ttf
 11
268.3412732243
 21
42.1129074561
 31
0.0
100
AcDbText
 73
         3
  0
TEXT
  5
87
100
AcDbEntity
  8
DEFAULT
370
         0
390
0
  6
CONTINUOUS
 62
         7
100
AcDbText
 10
292.5612857143
 20
56.3459285714
 30
0.0
 40
3.048
  1
NAME
  7
arial_ttf
 11
292.5612857143
 21
59.3939285714
 31
0.0
100
AcDbText
 73
         3
  0
INSERT
  5
89
100
AcDbEntity
  8
DEFAULT
370
         0
390
0
 62
         0
 48
0.0
100
AcDbBlockReference
  2
SE9
 10
0.0
 20
0.0
 30
0.0
  0
TEXT
  5
8A
100
AcDbEntity
  8
DEFAULT
370
         0
390
0
  6
CONTINUOUS
 62
         7
100
AcDbText
 10
313.7067857143
 20
56.3459285714
 30
0.0
 40
3.048
  1
DATE
  7
arial_ttf
 11
313.7067857143
 21
59.3939285714
 31
0.0
100
AcDbText
 73
         3
  0
INSERT
  5
8C
100
AcDbEntity
  8
DEFAULT
370
         0
390
0
 62
         0
 48
0.0
100
AcDbBlockReference
  2
SE10
 10
0.0
 20
0.0
 30
0.0
  0
TEXT
  5
8E
100
AcDbEntity
  8
DEFAULT
370
         0
390
0
  6
CONTINUOUS
 62
         7
100
AcDbText
 10
339.9314694019
 20
47.6877417715
 30
0.0
 40
10.0
  1
SFS intec
  7
arial_ttfB
 11
339.9314694019
 21
57.6877417715
 31
0.0
100
AcDbText
 73
         3
  0
TEXT
  5
8F
100
AcDbEntity
  8
DEFAULT
370
         0
390
0
  6
CONTINUOUS
 62
         7
100
AcDbText
 10
332.6648960673
 20
37.5087873688
 30
0.0
 40
3.0
  1
Glass Door Drilling Plan
  7
arial_ttf
 11
332.6648960673
 21
40.5087873688
 31
0.0
100
AcDbText
 73
         3
  0
INSERT
  5
92
100
AcDbEntity
  8
DEFAULT
370
         0
390
0
 62
         0
 48
0.0
100
AcDbBlockReference
  2
SE11
 10
0.0
 20
0.0
 30
0.0
  0
TEXT
  5
93
100
AcDbEntity
  8
DEFAULT
370
         0
390
0
  6
CONTINUOUS
 62
         7
100
AcDbText
 10
331.5170238095
 20
28.7173809524
 30
0.0
 40
2.54
  1
SIZE
  7
arial_ttf
 11
331.5170238095
 21
31.2573809524
 31
0.0
100
AcDbText
 73
         3
  0
TEXT
  5
94
100
AcDbEntity
  8
DEFAULT
370
         0
390
0
  6
CONTINUOUS
 62
         7
100
AcDbText
 10
332.7386428571
 20
24.5959285714
 30
0.0
 40
3.048
  1
A3
  7
arial_ttfB
 11
332.7386428571
 21
27.6439285714
 31
0.0
100
AcDbText
 73
         3
  0
TEXT
  5
95
100
AcDbEntity
  8
DEFAULT
370
         0
390
0
  6
CONTINUOUS
 62
         7
100
AcDbText
 10
341.42
 20
28.0821428571
 30
0.0
 40
3.0
  1
materiale: 
  7
arial_ttf
 11
341.42
 21
31.0821428571
 31
0.0
100
AcDbText
 73
         3
  0
INSERT
  5
97
100
AcDbEntity
  8
DEFAULT
370
         0
390
0
 62
         0
 48
0.0
100
AcDbBlockReference
  2
SE12
 10
0.0
 20
0.0
 30
0.0
  0
TEXT
  5
98
100
AcDbEntity
  8
DEFAULT
370
         0
390
0
  6
CONTINUOUS
 62
         7
100
AcDbText
 10
401.6361428571
 20
28.7173809524
 30
0.0
 40
2.54
  1
REV
  7
arial_ttf
 11
401.6361428571
 21
31.2573809524
 31
0.0
100
AcDbText
 73
         3
  0
TEXT
  5
99
100
AcDbEntity
  8
DEFAULT
370
         0
390
0
  6
CONTINUOUS
 62
         7
100
AcDbText
 10
332.149
 20
11.8654761905
 30
0.0
 40
2.5
  1
SCALE:
  7
arial_ttf
 11
332.149
 21
14.3654761905
 31
0.0
100
AcDbText
 73
         3
  0
TEXT
  5
9A
100
AcDbEntity
  8
DEFAULT
370
         0
390
0
  6
CONTINUOUS
 62
         7
100
AcDbText
 10
354.374
 20
11.8654761905
 30
0.0
 40
2.5
  1
WEIGHT:
  7
arial_ttf
 11
354.374
 21
14.3654761905
 31
0.0
100
AcDbText
 73
         3
  0
TEXT
  5
9B
100
AcDbEntity
  8
DEFAULT
370
         0
390
0
  6
CONTINUOUS
 62
         7
100
AcDbText
 10
268.7288012878
 20
24.8310944146
 30
0.0
 40
4.0
  1
disegno preliminare non 
  7
arial_ttf
 11
268.7288012878
 21
28.8310944146
 31
0.0
100
AcDbText
 73
         3
  0
TEXT
  5
9C
100
AcDbEntity
  8
DEFAULT
370
         0
390
0
  6
CONTINUOUS
 62
         7
100
AcDbText
 10
268.7288012878
 20
17.9739515575
 30
0.0
 40
4.0
  1
valido ai fini produttivi
  7
arial_ttf
 11
268.7288012878
 21
21.9739515575
 31
0.0
100
AcDbText
 73
         3
  0
INSERT
  5
9E
100
AcDbEntity
  8
DEFAULT
370
         0
390
0
 62
         0
 48
0.0
100
AcDbBlockReference
  2
SE13
 10
0.0
 20
0.0
 30
0.0
  0
INSERT
  5
A0
100
AcDbEntity
  8
DEFAULT
370
         0
390
0
 62
         0
 48
0.0
100
AcDbBlockReference
  2
SE14
 10
0.0
 20
0.0
 30
0.0
  0
INSERT
  5
A2
100
AcDbEntity
  8
DEFAULT
370
         0
390
0
 62
         0
 48
0.0
100
AcDbBlockReference
  2
SE15
 10
0.0
 20
0.0
 30
0.0
  0
INSERT
  5
A4
100
AcDbEntity
  8
DEFAULT
370
         0
390
0
 62
         0
 48
0.0
100
AcDbBlockReference
  2
SE16
 10
0.0
 20
0.0
 30
0.0
  0
ENDSEC
  0
SECTION
  2
OBJECTS
  0
DICTIONARY
  5
19
100
AcDbDictionary
280
         0
281
         1
  3
ACAD_GROUP
350
1A
  3
ACAD_MLINESTYLE
350
1B
  3
ACAD_LAYOUT
350
1E
  3
ACAD_PLOTSETTINGS
350
22
  3
ACAD_PLOTSTYLENAME
350
1F
  3
ACAD_WIPEOUT_VARS
350
23
  3
AcDbVariableDictionary
350
104
  0
DICTIONARY
  5
1A
102
{ACAD_REACTORS
330
19
102
}
100
AcDbDictionary
280
         0
281
         1
  0
DICTIONARY
  5
1B
102
{ACAD_REACTORS
330
19
102
}
100
AcDbDictionary
280
         0
281
         1
  3
Standard
350
1C
  0
MLINESTYLE
  5
1C
102
{ACAD_REACTORS
330
1B
102
}
100
AcDbMlineStyle
  2
Standard
 70
         0
  3

 62
         0
 51
90.0
 52
90.0
 71
         2
 49
0.5
 62
       256
  6
ByLayer
 49
-0.5
 62
       256
  6
ByLayer
  0
ACDBDICTIONARYWDFLT
  5
1F
102
{ACAD_REACTORS
330
19
102
}
100
AcDbDictionary
281
         1
  3
Normal
350
1D
100
AcDbDictionaryWithDefault
340
1D
  0
ACDBPLACEHOLDER
  5
1D
102
{ACAD_REACTORS
330
1F
102
}
  0
LAYOUT
  5
20
102
{ACAD_REACTORS
330
1E
102
}
100
AcDbPlotSettings
  1

  2

  4

  6

 40
0.0
 41
0.0
 42
0.0
 43
0.0
 44
0.0
 45
0.0
 46
0.0
 47
0.0
 48
0.0
 49
0.0
140
0.0
141
0.0
142
1.0
143
1.0
 70
      1024
 72
         0
 73
         0
 74
         0
  7

 75
         0
147
1.0
148
0.0
149
0.0
100
AcDbLayout
  1
Model
 70
         0
 71
         0
 10
0.0
 20
0.0
 11
0.0
 21
0.0
 12
0.0
 22
0.0
 32
0.0
 14
0.0
 24
0.0
 34
0.0
 15
0.0
 25
0.0
 35
0.0
146
0.0
 13
0.0
 23
0.0
 33
0.0
 16
0.0
 26
0.0
 36
0.0
 17
0.0
 27
0.0
 37
0.0
 76
         0
330
A
331
0
345
0
346
0
  0
LAYOUT
  5
21
102
{ACAD_REACTORS
330
1E
102
}
100
AcDbPlotSettings
  1

  2

  4

  6

 40
0.0
 41
0.0
 42
0.0
 43
0.0
 44
0.0
 45
0.0
 46
0.0
 47
0.0
 48
0.0
 49
0.0
140
0.0
141
0.0
142
1.0
143
1.0
 70
         0
 72
         0
 73
         0
 74
         0
  7

 75
         0
147
1.0
148
0.0
149
0.0
100
AcDbLayout
  1
Layout1
 70
         0
 71
         0
 10
0.0
 20
0.0
 11
0.0
 21
0.0
 12
0.0
 22
0.0
 32
0.0
 14
0.0
 24
0.0
 34
0.0
 15
0.0
 25
0.0
 35
0.0
146
0.0
 13
0.0
 23
0.0
 33
0.0
 16
0.0
 26
0.0
 36
0.0
 17
0.0
 27
0.0
 37
0.0
 76
         0
330
B
331
0
345
0
346
0
  0
DICTIONARY
  5
1E
102
{ACAD_REACTORS
330
19
102
}
100
AcDbDictionary
280
         0
281
         1
  3
Layout1
350
21
  3
Model
350
20
  0
DICTIONARY
  5
22
102
{ACAD_REACTORS
330
19
102
}
100
AcDbDictionary
280
         0
281
         1
  0
WIPEOUTVARIABLES
  5
23
100
AcDbWipeoutVariables
 70
         1
  0
DICTIONARY
  5
4E
100
AcDbDictionary
280
         0
281
         0
  3
ACAD_FILTER
350
4F
  0
DICTIONARY
  5
4F
100
AcDbDictionary
280
         0
281
         0
  3
SPATIAL
350
50
  0
SPATIAL_FILTER
  5
50
100
AcDbFilter
100
AcDbSpatialFilter
 70
         2
 10
87.3045084648
 20
55.0597513955
 10
170.0045095078
 20
277.7597597401
210
0.0
220
0.0
230
1.0
 11
0.0
 21
0.0
 31
0.0
 71
         1
 72
         0
 73
         0
 40
1.0
 40
0.0
 40
0.0
 40
0.0
 40
0.0
 40
1.0
 40
0.0
 40
0.0
 40
0.0
 40
0.0
 40
1.0
 40
0.0
 40
1.0
 40
0.0
 40
0.0
 40
0.0
 40
0.0
 40
1.0
 40
0.0
 40
0.0
 40
0.0
 40
0.0
 40
1.0
 40
0.0
  0
DICTIONARY
  5
67
100
AcDbDictionary
280
         0
281
         0
  3
ACAD_FILTER
350
68
  0
DICTIONARY
  5
68
100
AcDbDictionary
280
         0
281
         0
  3
SPATIAL
350
69
  0
SPATIAL_FILTER
  5
69
100
AcDbFilter
100
AcDbSpatialFilter
 70
         2
 10
87.3045084648
 20
23.6973235665
 10
170.0045095078
 20
43.39732341
210
0.0
220
0.0
230
1.0
 11
0.0
 21
0.0
 31
0.0
 71
         1
 72
         0
 73
         0
 40
1.0
 40
0.0
 40
0.0
 40
0.0
 40
0.0
 40
1.0
 40
0.0
 40
0.0
 40
0.0
 40
0.0
 40
1.0
 40
0.0
 40
1.0
 40
0.0
 40
0.0
 40
0.0
 40
0.0
 40
1.0
 40
0.0
 40
0.0
 40
0.0
 40
0.0
 40
1.0
 40
0.0
  0
DICTIONARY
  5
104
100
AcDbDictionary
280
         0
281
         0
  3
DIMASSOC
350
105
  0
DICTIONARYVAR
  5
105
100
DictionaryVariables
280
         0
  1
2
  0
ENDSEC
  0
EOF
